  0
SECTION
  2
HEADER
  9
$ACADVER
  1
AC1015
  9
$ACADMAINTVER
 70
     6
  9
$DWGCODEPAGE
  3
ANSI_1254
  9
$INSBASE
 10
0.0
 20
0.0
 30
0.0
  9
$EXTMIN
 10
0.0
 20
0.0
 30
0.0
  9
$EXTMAX
 10
279.4
 20
215.9
 30
0.0
  9
$LIMMIN
 10
0.0
 20
0.0
  9
$LIMMAX
 10
279.4
 20
215.9
  9
$ORTHOMODE
 70
     0
  9
$REGENMODE
 70
     1
  9
$FILLMODE
 70
     1
  9
$QTEXTMODE
 70
     0
  9
$MIRRTEXT
 70
     1
  9
$LTSCALE
 40
1.0
  9
$ATTMODE
 70
     1
  9
$TEXTSIZE
 40
3.5
  9
$TRACEWID
 40
1.0
  9
$TEXTSTYLE
  7
Standard
  9
$CLAYER
  8
0
  9
$CELTYPE
  6
ByLayer
  9
$CECOLOR
 62
   256
  9
$CELTSCALE
 40
1.0
  9
$DISPSILH
 70
     0
  9
$DIMSCALE
 40
1.0
  9
$DIMASZ
 40
3.5
  9
$DIMEXO
 40
1.0
  9
$DIMDLI
 40
3.75
  9
$DIMRND
 40
0.0
  9
$DIMDLE
 40
0.0
  9
$DIMEXE
 40
1.0
  9
$DIMTP
 40
0.0
  9
$DIMTM
 40
0.0
  9
$DIMTXT
 40
3.5
  9
$DIMCEN
 40
2.5
  9
$DIMTSZ
 40
0.0
  9
$DIMTOL
 70
     0
  9
$DIMLIM
 70
     0
  9
$DIMTIH
 70
     1
  9
$DIMTOH
 70
     1
  9
$DIMSE1
 70
     0
  9
$DIMSE2
 70
     0
  9
$DIMTAD
 70
     1
  9
$DIMZIN
 70
     0
  9
$DIMBLK
  1

  9
$DIMASO
 70
     1
  9
$DIMSHO
 70
     1
  9
$DIMPOST
  1

  9
$DIMAPOST
  1

  9
$DIMALT
 70
     0
  9
$DIMALTD
 70
     3
  9
$DIMALTF
 40
0.0393700787
  9
$DIMLFAC
 40
1.0
  9
$DIMTOFL
 70
     1
  9
$DIMTVP
 40
0.0
  9
$DIMTIX
 70
     0
  9
$DIMSOXD
 70
     0
  9
$DIMSAH
 70
     0
  9
$DIMBLK1
  1

  9
$DIMBLK2
  1

  9
$DIMSTYLE
  2
ISO-25
  9
$DIMCLRD
 70
     0
  9
$DIMCLRE
 70
     0
  9
$DIMCLRT
 70
     0
  9
$DIMTFAC
 40
1.0
  9
$DIMGAP
 40
1.524
  9
$DIMJUST
 70
     0
  9
$DIMSD1
 70
     0
  9
$DIMSD2
 70
     0
  9
$DIMTOLJ
 70
     0
  9
$DIMTZIN
 70
     0
  9
$DIMALTZ
 70
     0
  9
$DIMALTTZ
 70
     0
  9
$DIMUPT
 70
     0
  9
$DIMDEC
 70
     2
  9
$DIMTDEC
 70
     2
  9
$DIMALTU
 70
     2
  9
$DIMALTTD
 70
     3
  9
$DIMTXSTY
  7
Standard
  9
$DIMAUNIT
 70
     0
  9
$DIMADEC
 70
     2
  9
$DIMALTRND
 40
0.0
  9
$DIMAZIN
 70
     0
  9
$DIMDSEP
 70
    44
  9
$DIMATFIT
 70
     3
  9
$DIMFRAC
 70
     0
  9
$DIMLDRBLK
  1

  9
$DIMLUNIT
 70
     2
  9
$DIMLWD
 70
    -2
  9
$DIMLWE
 70
    -2
  9
$DIMTMOVE
 70
     0
  9
$LUNITS
 70
     2
  9
$LUPREC
 70
     2
  9
$SKETCHINC
 40
1.0
  9
$FILLETRAD
 40
10.0
  9
$AUNITS
 70
     0
  9
$AUPREC
 70
     2
  9
$MENU
  1
.
  9
$ELEVATION
 40
0.0
  9
$PELEVATION
 40
0.0
  9
$THICKNESS
 40
0.0
  9
$LIMCHECK
 70
     0
  9
$CHAMFERA
 40
0.0
  9
$CHAMFERB
 40
0.0
  9
$CHAMFERC
 40
0.0
  9
$CHAMFERD
 40
0.0
  9
$SKPOLY
 70
     0
  9
$TDCREATE
 40
2459741.603174039
  9
$TDUCREATE
 40
2459741.478174039
  9
$TDUPDATE
 40
2459741.603174306
  9
$TDUUPDATE
 40
2459741.478174306
  9
$TDINDWG
 40
0.0000000116
  9
$TDUSRTIMER
 40
0.0000000116
  9
$USRTIMER
 70
     1
  9
$ANGBASE
 50
0.0
  9
$ANGDIR
 70
     0
  9
$PDMODE
 70
     0
  9
$PDSIZE
 40
-1.0
  9
$PLINEWID
 40
0.0
  9
$SPLFRAME
 70
     0
  9
$SPLINETYPE
 70
     6
  9
$SPLINESEGS
 70
     8
  9
$HANDSEED
  5
12E
  9
$SURFTAB1
 70
     6
  9
$SURFTAB2
 70
     6
  9
$SURFTYPE
 70
     6
  9
$SURFU
 70
     6
  9
$SURFV
 70
     6
  9
$UCSBASE
  2

  9
$UCSNAME
  2

  9
$UCSORG
 10
0.0
 20
0.0
 30
0.0
  9
$UCSXDIR
 10
1.0
 20
0.0
 30
0.0
  9
$UCSYDIR
 10
0.0
 20
1.0
 30
0.0
  9
$UCSORTHOREF
  2

  9
$UCSORTHOVIEW
 70
     0
  9
$UCSORGTOP
 10
0.0
 20
0.0
 30
0.0
  9
$UCSORGBOTTOM
 10
0.0
 20
0.0
 30
0.0
  9
$UCSORGLEFT
 10
0.0
 20
0.0
 30
0.0
  9
$UCSORGRIGHT
 10
0.0
 20
0.0
 30
0.0
  9
$UCSORGFRONT
 10
0.0
 20
0.0
 30
0.0
  9
$UCSORGBACK
 10
0.0
 20
0.0
 30
0.0
  9
$PUCSBASE
  2

  9
$PUCSNAME
  2

  9
$PUCSORG
 10
0.0
 20
0.0
 30
0.0
  9
$PUCSXDIR
 10
1.0
 20
0.0
 30
0.0
  9
$PUCSYDIR
 10
0.0
 20
1.0
 30
0.0
  9
$PUCSORTHOREF
  2

  9
$PUCSORTHOVIEW
 70
     0
  9
$PUCSORGTOP
 10
0.0
 20
0.0
 30
0.0
  9
$PUCSORGBOTTOM
 10
0.0
 20
0.0
 30
0.0
  9
$PUCSORGLEFT
 10
0.0
 20
0.0
 30
0.0
  9
$PUCSORGRIGHT
 10
0.0
 20
0.0
 30
0.0
  9
$PUCSORGFRONT
 10
0.0
 20
0.0
 30
0.0
  9
$PUCSORGBACK
 10
0.0
 20
0.0
 30
0.0
  9
$USERI1
 70
     0
  9
$USERI2
 70
     0
  9
$USERI3
 70
     0
  9
$USERI4
 70
     0
  9
$USERI5
 70
     0
  9
$USERR1
 40
0.0
  9
$USERR2
 40
0.0
  9
$USERR3
 40
0.0
  9
$USERR4
 40
0.0
  9
$USERR5
 40
0.0
  9
$WORLDVIEW
 70
     1
  9
$SHADEDGE
 70
     3
  9
$SHADEDIF
 70
    70
  9
$TILEMODE
 70
     1
  9
$MAXACTVP
 70
    64
  9
$PINSBASE
 10
0.0
 20
0.0
 30
0.0
  9
$PLIMCHECK
 70
     0
  9
$PEXTMIN
 10
1.0000000000E+20
 20
1.0000000000E+20
 30
1.0000000000E+20
  9
$PEXTMAX
 10
-1.0000000000E+20
 20
-1.0000000000E+20
 30
-1.0000000000E+20
  9
$PLIMMIN
 10
0.0
 20
0.0
  9
$PLIMMAX
 10
420.0
 20
297.0
  9
$UNITMODE
 70
     0
  9
$VISRETAIN
 70
     1
  9
$PLINEGEN
 70
     0
  9
$PSLTSCALE
 70
     1
  9
$TREEDEPTH
 70
  3020
  9
$CMLSTYLE
  2
Standard
  9
$CMLJUST
 70
     0
  9
$CMLSCALE
 40
20.0
  9
$PROXYGRAPHICS
 70
     1
  9
$MEASUREMENT
 70
     1
  9
$CELWEIGHT
370
    -1
  9
$ENDCAPS
280
     0
  9
$JOINSTYLE
280
     0
  9
$LWDISPLAY
290
     1
  9
$INSUNITS
 70
     4
  9
$HYPERLINKBASE
  1

  9
$STYLESHEET
  1

  9
$XEDIT
290
     1
  9
$CEPSNTYPE
380
     0
  9
$PSTYLEMODE
290
     1
  9
$FINGERPRINTGUID
  2
{c89933bb-546a-4efc-8a22-a51cf9d2b98c}
  9
$VERSIONGUID
  2
{FAEB1C32-E019-11D5-929B-00C0DF256EC4}
  9
$EXTNAMES
290
     1
  9
$PSVPSCALE
 40
0.0
  9
$OLESTARTUP
290
     0
  0
ENDSEC
  0
SECTION
  2
CLASSES
  0
CLASS
  1
ACDBDICTIONARYWDFLT
  2
AcDbDictionaryWithDefault
  3
ObjectDBX Classes
 90
        0
280
     0
281
     0
  0
CLASS
  1
VISUALSTYLE
  2
AcDbVisualStyle
  3
ObjectDBX Classes
 90
     4095
280
     0
281
     0
  0
CLASS
  1
MATERIAL
  2
AcDbMaterial
  3
ObjectDBX Classes
 90
     1153
280
     0
281
     0
  0
CLASS
  1
SCALE
  2
AcDbScale
  3
ObjectDBX Classes
 90
     1153
280
     0
281
     0
  0
CLASS
  1
TABLESTYLE
  2
AcDbTableStyle
  3
ObjectDBX Classes
 90
     4095
280
     0
281
     0
  0
CLASS
  1
MLEADERSTYLE
  2
AcDbMLeaderStyle
  3
ACDB_MLEADERSTYLE_CLASS
 90
     4095
280
     0
281
     0
  0
CLASS
  1
SUN
  2
AcDbSun
  3
SCENEOE
 90
     1153
280
     0
281
     0
  0
CLASS
  1
ACDBPLACEHOLDER
  2
AcDbPlaceHolder
  3
ObjectDBX Classes
 90
        0
280
     0
281
     0
  0
CLASS
  1
LAYOUT
  2
AcDbLayout
  3
ObjectDBX Classes
 90
        0
280
     0
281
     0
  0
ENDSEC
  0
SECTION
  2
TABLES
  0
TABLE
  2
VPORT
  5
8
330
0
100
AcDbSymbolTable
 70
     1
  0
VPORT
  5
29
330
8
100
AcDbSymbolTableRecord
100
AcDbViewportTableRecord
  2
*Active
 70
     0
 10
0.0
 20
0.0
 11
1.0
 21
1.0
 12
139.7
 22
107.95
 13
0.0
 23
0.0
 14
10.0
 24
10.0
 15
10.0
 25
10.0
 16
0.0
 26
0.0
 36
1.0
 17
0.0
 27
0.0
 37
0.0
 40
215.9
 41
1.2941176471
 42
50.0
 43
0.0
 44
0.0
 50
0.0
 51
0.0
 71
     0
 72
  2000
 73
     1
 74
     3
 75
     0
 76
     0
 77
     0
 78
     0
281
     0
 65
     1
110
0.0
120
0.0
130
0.0
111
1.0
121
0.0
131
0.0
112
0.0
122
1.0
132
0.0
 79
     0
146
0.0
  0
ENDTAB
  0
TABLE
  2
LTYPE
  5
5
330
0
100
AcDbSymbolTable
 70
     6
  0
LTYPE
  5
14
330
5
100
AcDbSymbolTableRecord
100
AcDbLinetypeTableRecord
  2
ByBlock
 70
     0
  3

 72
    65
 73
     0
 40
0.0
  0
LTYPE
  5
15
330
5
100
AcDbSymbolTableRecord
100
AcDbLinetypeTableRecord
  2
ByLayer
 70
     0
  3

 72
    65
 73
     0
 40
0.0
  0
LTYPE
  5
16
330
5
100
AcDbSymbolTableRecord
100
AcDbLinetypeTableRecord
  2
Continuous
 70
     0
  3
Solid line
 72
    65
 73
     0
 40
0.0
  0
LTYPE
  5
6E
330
5
100
AcDbSymbolTableRecord
100
AcDbLinetypeTableRecord
  2
HIDDEN
 70
     0
  3
Hidden __ __ __ __ __ __ __ __ __ __ __ __ __ __
 72
    65
 73
     2
 40
1.905
 49
1.27
 74
     0
 49
-0.635
 74
     0
  0
LTYPE
  5
6F
330
5
100
AcDbSymbolTableRecord
100
AcDbLinetypeTableRecord
  2
PHANTOM
 70
     0
  3
Phantom ______  __  __  ______  __  __  ______
 72
    65
 73
     6
 40
12.7
 49
6.35
 74
     0
 49
-1.27
 74
     0
 49
1.27
 74
     0
 49
-1.27
 74
     0
 49
1.27
 74
     0
 49
-1.27
 74
     0
  0
LTYPE
  5
70
330
5
100
AcDbSymbolTableRecord
100
AcDbLinetypeTableRecord
  2
CENTER
 70
     0
  3
Center ____ _ ____ _ ____ _ ____ _ ____ _ ____
 72
    65
 73
     4
 40
10.16
 49
6.35
 74
     0
 49
-1.27
 74
     0
 49
1.27
 74
     0
 49
-1.27
 74
     0
  0
LTYPE
  5
71
330
5
100
AcDbSymbolTableRecord
100
AcDbLinetypeTableRecord
  2
CENTERX2
 70
     0
  3
Center (2x) ________  __  ________  __  _____
 72
    65
 73
     4
 40
20.32
 49
12.7
 74
     0
 49
-2.54
 74
     0
 49
2.54
 74
     0
 49
-2.54
 74
     0
  0
LTYPE
  5
72
330
5
100
AcDbSymbolTableRecord
100
AcDbLinetypeTableRecord
  2
DOT2
 70
     0
  3
Dot (.5x) ........................................
 72
    65
 73
     2
 40
0.635
 49
0.0
 74
     0
 49
-0.635
 74
     0
  0
ENDTAB
  0
TABLE
  2
LAYER
  5
2
330
0
100
AcDbSymbolTable
 70
    17
  0
LAYER
  5
10
330
2
100
AcDbSymbolTableRecord
100
AcDbLayerTableRecord
  2
0
 70
     0
 62
     7
  6
Continuous
370
    -3
390
F
  0
LAYER
  5
73
330
2
100
AcDbSymbolTableRecord
100
AcDbLayerTableRecord
  2
FORMAT
 70
     0
 62
     7
  6
Continuous
370
    -3
390
F
  0
LAYER
  5
74
330
2
100
AcDbSymbolTableRecord
100
AcDbLayerTableRecord
  2
YARDIMCI_GEOMETRI
 70
     0
 62
    -6
  6
Continuous
290
     0
370
    -3
390
F
  0
LAYER
  5
75
330
2
100
AcDbSymbolTableRecord
100
AcDbLayerTableRecord
  2
SAYFA_CERCEVESI
 70
     0
 62
     7
  6
Continuous
370
    25
390
F
  0
LAYER
  5
76
330
2
100
AcDbSymbolTableRecord
100
AcDbLayerTableRecord
  2
ANTET
 70
     0
 62
     7
  6
Continuous
370
    -3
390
F
  0
LAYER
  5
77
330
2
100
AcDbSymbolTableRecord
100
AcDbLayerTableRecord
  2
OLCU
 70
     0
 62
   150
  6
Continuous
370
    -3
390
F
  0
LAYER
  5
78
330
2
100
AcDbSymbolTableRecord
100
AcDbLayerTableRecord
  2
METIN
 70
     0
 62
    96
  6
Continuous
370
    -3
390
F
  0
LAYER
  5
79
330
2
100
AcDbSymbolTableRecord
100
AcDbLayerTableRecord
  2
BALON
 70
     0
 62
     5
  6
Continuous
370
    -3
390
F
  0
LAYER
  5
7A
330
2
100
AcDbSymbolTableRecord
100
AcDbLayerTableRecord
  2
VURGU
 70
     0
 62
     7
  6
Continuous
370
    -3
390
F
  0
LAYER
  5
7B
330
2
100
AcDbSymbolTableRecord
100
AcDbLayerTableRecord
  2
SILIK
 70
     0
 62
     7
  6
Continuous
370
    -3
390
F
  0
LAYER
  5
7C
330
2
100
AcDbSymbolTableRecord
100
AcDbLayerTableRecord
  2
MODEL
 70
     0
 62
     7
  6
Continuous
370
    -3
390
F
  0
LAYER
  5
7D
330
2
100
AcDbSymbolTableRecord
100
AcDbLayerTableRecord
  2
DETAYLANDıRMA
 70
     0
 62
   190
  6
Continuous
370
    -3
390
F
  0
LAYER
  5
7E
330
2
100
AcDbSymbolTableRecord
100
AcDbLayerTableRecord
  2
TOLERANS
 70
     0
 62
   230
  6
Continuous
370
    -3
390
F
  0
LAYER
  5
7F
330
2
100
AcDbSymbolTableRecord
100
AcDbLayerTableRecord
  2
MERKEZ_CIZGILERI
 70
     0
 62
    30
  6
Continuous
370
    -3
390
F
  0
LAYER
  5
80
330
2
100
AcDbSymbolTableRecord
100
AcDbLayerTableRecord
  2
KESIT-DETAY_CIZGILERI
 70
     0
 62
     7
  6
Continuous
370
    -3
390
F
  0
LAYER
  5
81
330
2
100
AcDbSymbolTableRecord
100
AcDbLayerTableRecord
  2
\U+041E\U+0421\U+0415\U+0412\U+042B\U+0415
 70
     0
 62
     7
  6
Continuous
370
    -3
390
F
  0
LAYER
  5
82
330
2
100
AcDbSymbolTableRecord
100
AcDbLayerTableRecord
  2
\U+0412\U+041E\U+0414\U+042F\U+041D\U+042B\U+0415_\U+0417\U+041D\U+0410\U+041A\U+0418
 70
     0
 62
    11
  6
Continuous
370
    -3
390
F
  0
ENDTAB
  0
TABLE
  2
STYLE
  5
3
330
0
100
AcDbSymbolTable
 70
     1
  0
STYLE
  5
11
330
3
100
AcDbSymbolTableRecord
100
AcDbTextStyleTableRecord
  2
Standard
 70
     0
 40
0.0
 41
1.0
 50
0.0
 71
     0
 42
3.5
  3
txt
  4

  0
ENDTAB
  0
TABLE
  2
VIEW
  5
6
330
0
100
AcDbSymbolTable
 70
     0
  0
ENDTAB
  0
TABLE
  2
UCS
  5
7
330
0
100
AcDbSymbolTable
 70
     0
  0
ENDTAB
  0
TABLE
  2
APPID
  5
9
330
0
100
AcDbSymbolTable
 70
     1
  0
APPID
  5
12
330
9
100
AcDbSymbolTableRecord
100
AcDbRegAppTableRecord
  2
ACAD
 70
     0
  0
ENDTAB
  0
TABLE
  2
DIMSTYLE
  5
A
330
0
100
AcDbSymbolTable
 70
     1
100
AcDbDimStyleTable
  0
DIMSTYLE
105
27
330
A
100
AcDbSymbolTableRecord
100
AcDbDimStyleTableRecord
  2
ISO-25
 70
     0
 41
2.5
 42
0.625
 43
3.75
 44
1.25
 73
     0
 74
     0
 77
     1
 78
     8
140
2.5
141
2.5
143
0.0393700787
147
0.625
171
     3
172
     1
178
     0
271
     2
272
     2
274
     3
278
    44
283
     0
284
     8
340
11
  0
ENDTAB
  0
TABLE
  2
BLOCK_RECORD
  5
1
330
0
100
AcDbSymbolTable
 70
     5
  0
BLOCK_RECORD
  5
1F
330
1
100
AcDbSymbolTableRecord
100
AcDbBlockTableRecord
  2
*Model_Space
340
22
  0
BLOCK_RECORD
  5
1B
330
1
100
AcDbSymbolTableRecord
100
AcDbBlockTableRecord
  2
*Paper_Space
340
1E
  0
BLOCK_RECORD
  5
23
330
1
100
AcDbSymbolTableRecord
100
AcDbBlockTableRecord
  2
*Paper_Space0
340
26
  0
BLOCK_RECORD
  5
AA
330
1
100
AcDbSymbolTableRecord
100
AcDbBlockTableRecord
  2
SW_CENTERMARKSYMBOL_0
340
0
102
{BLKREFS
331
B5
102
}
  0
BLOCK_RECORD
  5
C7
330
1
100
AcDbSymbolTableRecord
100
AcDbBlockTableRecord
  2
SW_CENTERMARKSYMBOL_1
340
0
102
{BLKREFS
331
D2
102
}
  0
BLOCK_RECORD
  5
EB
330
1
100
AcDbSymbolTableRecord
100
AcDbBlockTableRecord
  2
SW_CENTERMARKSYMBOL_2
340
0
102
{BLKREFS
331
F6
102
}
  0
BLOCK_RECORD
  5
107
330
1
100
AcDbSymbolTableRecord
100
AcDbBlockTableRecord
  2
SW_CENTERMARKSYMBOL_3
340
0
102
{BLKREFS
331
112
102
}
  0
ENDTAB
  0
ENDSEC
  0
SECTION
  2
BLOCKS
  0
BLOCK
  5
20
330
1F
100
AcDbEntity
  8
0
100
AcDbBlockBegin
  2
*Model_Space
 70
     0
 10
0.0
 20
0.0
 30
0.0
  3
*Model_Space
  1

  0
ENDBLK
  5
21
330
1F
100
AcDbEntity
  8
0
100
AcDbBlockEnd
  0
BLOCK
  5
1C
330
1B
100
AcDbEntity
 67
     1
  8
0
100
AcDbBlockBegin
  2
*Paper_Space
 70
     0
 10
0.0
 20
0.0
 30
0.0
  3
*Paper_Space
  1

  0
ENDBLK
  5
1D
330
1B
100
AcDbEntity
 67
     1
  8
0
100
AcDbBlockEnd
  0
BLOCK
  5
24
330
23
100
AcDbEntity
  8
0
100
AcDbBlockBegin
  2
*Paper_Space0
 70
     0
 10
0.0
 20
0.0
 30
0.0
  3
*Paper_Space0
  1

  0
ENDBLK
  5
25
330
23
100
AcDbEntity
  8
0
100
AcDbBlockEnd
  0
BLOCK
  5
AB
330
AA
100
AcDbEntity
  8
0
100
AcDbBlockBegin
  2
SW_CENTERMARKSYMBOL_0
 70
     0
 10
0.0
 20
0.0
 30
0.0
  3
SW_CENTERMARKSYMBOL_0
  1

  0
LINE
  5
AD
330
AA
100
AcDbEntity
  8
FORMAT
 62
     0
100
AcDbLine
 10
0.0
 20
0.0
 30
0.0
 11
0.0
 21
2.5
 31
0.0
  0
LINE
  5
AE
330
AA
100
AcDbEntity
  8
FORMAT
 62
     0
100
AcDbLine
 10
0.0
 20
0.0
 30
0.0
 11
-2.5
 21
0.0
 31
0.0
  0
LINE
  5
AF
330
AA
100
AcDbEntity
  8
FORMAT
 62
     0
100
AcDbLine
 10
0.0
 20
0.0
 30
0.0
 11
0.0
 21
-2.5
 31
0.0
  0
LINE
  5
B0
330
AA
100
AcDbEntity
  8
FORMAT
 62
     0
100
AcDbLine
 10
0.0
 20
0.0
 30
0.0
 11
2.5
 21
0.0
 31
0.0
  0
LINE
  5
B1
330
AA
100
AcDbEntity
  8
FORMAT
 62
     0
100
AcDbLine
 10
0.0
 20
5.0
 30
0.0
 11
0.0
 21
43.0
 31
0.0
  0
LINE
  5
B2
330
AA
100
AcDbEntity
  8
FORMAT
 62
     0
100
AcDbLine
 10
-5.0
 20
0.0
 30
0.0
 11
-43.0
 21
0.0
 31
0.0
  0
LINE
  5
B3
330
AA
100
AcDbEntity
  8
FORMAT
 62
     0
100
AcDbLine
 10
0.0
 20
-5.0
 30
0.0
 11
0.0
 21
-43.0
 31
0.0
  0
LINE
  5
B4
330
AA
100
AcDbEntity
  8
FORMAT
 62
     0
100
AcDbLine
 10
5.0
 20
0.0
 30
0.0
 11
43.0
 21
0.0
 31
0.0
  0
ENDBLK
  5
AC
330
AA
100
AcDbEntity
  8
0
100
AcDbBlockEnd
  0
BLOCK
  5
C8
330
C7
100
AcDbEntity
  8
0
100
AcDbBlockBegin
  2
SW_CENTERMARKSYMBOL_1
 70
     0
 10
0.0
 20
0.0
 30
0.0
  3
SW_CENTERMARKSYMBOL_1
  1

  0
LINE
  5
CA
330
C7
100
AcDbEntity
  8
FORMAT
 62
     0
100
AcDbLine
 10
0.0
 20
0.0
 30
0.0
 11
0.0
 21
2.5
 31
0.0
  0
LINE
  5
CB
330
C7
100
AcDbEntity
  8
FORMAT
 62
     0
100
AcDbLine
 10
0.0
 20
0.0
 30
0.0
 11
-2.5
 21
0.0
 31
0.0
  0
LINE
  5
CC
330
C7
100
AcDbEntity
  8
FORMAT
 62
     0
100
AcDbLine
 10
0.0
 20
0.0
 30
0.0
 11
0.0
 21
-2.5
 31
0.0
  0
LINE
  5
CD
330
C7
100
AcDbEntity
  8
FORMAT
 62
     0
100
AcDbLine
 10
0.0
 20
0.0
 30
0.0
 11
2.5
 21
0.0
 31
0.0
  0
LINE
  5
CE
330
C7
100
AcDbEntity
  8
FORMAT
 62
     0
100
AcDbLine
 10
0.0
 20
5.0
 30
0.0
 11
0.0
 21
41.75
 31
0.0
  0
LINE
  5
CF
330
C7
100
AcDbEntity
  8
FORMAT
 62
     0
100
AcDbLine
 10
-5.0
 20
0.0
 30
0.0
 11
-41.75
 21
0.0
 31
0.0
  0
LINE
  5
D0
330
C7
100
AcDbEntity
  8
FORMAT
 62
     0
100
AcDbLine
 10
0.0
 20
-5.0
 30
0.0
 11
0.0
 21
-41.75
 31
0.0
  0
LINE
  5
D1
330
C7
100
AcDbEntity
  8
FORMAT
 62
     0
100
AcDbLine
 10
5.0
 20
0.0
 30
0.0
 11
41.75
 21
0.0
 31
0.0
  0
ENDBLK
  5
C9
330
C7
100
AcDbEntity
  8
0
100
AcDbBlockEnd
  0
BLOCK
  5
EC
330
EB
100
AcDbEntity
  8
0
100
AcDbBlockBegin
  2
SW_CENTERMARKSYMBOL_2
 70
     0
 10
0.0
 20
0.0
 30
0.0
  3
SW_CENTERMARKSYMBOL_2
  1

  0
LINE
  5
EE
330
EB
100
AcDbEntity
  8
FORMAT
 62
     0
100
AcDbLine
 10
0.0
 20
0.0
 30
0.0
 11
0.0
 21
2.5
 31
0.0
  0
LINE
  5
EF
330
EB
100
AcDbEntity
  8
FORMAT
 62
     0
100
AcDbLine
 10
0.0
 20
0.0
 30
0.0
 11
-2.5
 21
0.0
 31
0.0
  0
LINE
  5
F0
330
EB
100
AcDbEntity
  8
FORMAT
 62
     0
100
AcDbLine
 10
0.0
 20
0.0
 30
0.0
 11
0.0
 21
-2.5
 31
0.0
  0
LINE
  5
F1
330
EB
100
AcDbEntity
  8
FORMAT
 62
     0
100
AcDbLine
 10
0.0
 20
0.0
 30
0.0
 11
2.5
 21
0.0
 31
0.0
  0
LINE
  5
F2
330
EB
100
AcDbEntity
  8
FORMAT
 62
     0
100
AcDbLine
 10
0.0
 20
5.0
 30
0.0
 11
0.0
 21
43.0
 31
0.0
  0
LINE
  5
F3
330
EB
100
AcDbEntity
  8
FORMAT
 62
     0
100
AcDbLine
 10
-5.0
 20
0.0
 30
0.0
 11
-43.0
 21
0.0
 31
0.0
  0
LINE
  5
F4
330
EB
100
AcDbEntity
  8
FORMAT
 62
     0
100
AcDbLine
 10
0.0
 20
-5.0
 30
0.0
 11
0.0
 21
-43.0
 31
0.0
  0
LINE
  5
F5
330
EB
100
AcDbEntity
  8
FORMAT
 62
     0
100
AcDbLine
 10
5.0
 20
0.0
 30
0.0
 11
43.0
 21
0.0
 31
0.0
  0
ENDBLK
  5
ED
330
EB
100
AcDbEntity
  8
0
100
AcDbBlockEnd
  0
BLOCK
  5
108
330
107
100
AcDbEntity
  8
0
100
AcDbBlockBegin
  2
SW_CENTERMARKSYMBOL_3
 70
     0
 10
0.0
 20
0.0
 30
0.0
  3
SW_CENTERMARKSYMBOL_3
  1

  0
LINE
  5
10A
330
107
100
AcDbEntity
  8
FORMAT
 62
     0
100
AcDbLine
 10
0.0
 20
0.0
 30
0.0
 11
0.0
 21
2.5
 31
0.0
  0
LINE
  5
10B
330
107
100
AcDbEntity
  8
FORMAT
 62
     0
100
AcDbLine
 10
0.0
 20
0.0
 30
0.0
 11
-2.5
 21
0.0
 31
0.0
  0
LINE
  5
10C
330
107
100
AcDbEntity
  8
FORMAT
 62
     0
100
AcDbLine
 10
0.0
 20
0.0
 30
0.0
 11
0.0
 21
-2.5
 31
0.0
  0
LINE
  5
10D
330
107
100
AcDbEntity
  8
FORMAT
 62
     0
100
AcDbLine
 10
0.0
 20
0.0
 30
0.0
 11
2.5
 21
0.0
 31
0.0
  0
LINE
  5
10E
330
107
100
AcDbEntity
  8
FORMAT
 62
     0
100
AcDbLine
 10
0.0
 20
5.0
 30
0.0
 11
0.0
 21
41.75
 31
0.0
  0
LINE
  5
10F
330
107
100
AcDbEntity
  8
FORMAT
 62
     0
100
AcDbLine
 10
-5.0
 20
0.0
 30
0.0
 11
-41.75
 21
0.0
 31
0.0
  0
LINE
  5
110
330
107
100
AcDbEntity
  8
FORMAT
 62
     0
100
AcDbLine
 10
0.0
 20
-5.0
 30
0.0
 11
0.0
 21
-41.75
 31
0.0
  0
LINE
  5
111
330
107
100
AcDbEntity
  8
FORMAT
 62
     0
100
AcDbLine
 10
5.0
 20
0.0
 30
0.0
 11
41.75
 21
0.0
 31
0.0
  0
ENDBLK
  5
109
330
107
100
AcDbEntity
  8
0
100
AcDbBlockEnd
  0
ENDSEC
  0
SECTION
  2
ENTITIES
  0
LINE
  5
83
330
1F
100
AcDbEntity
  8
0
  6
Continuous
 62
     7
370
    25
100
AcDbLine
 10
161.5719503349
 20
198.2868316137
 30
0.0
 11
116.8333142611
 21
153.54819554
 31
0.0
  0
LINE
  5
84
330
1F
100
AcDbEntity
  8
0
  6
Continuous
 62
     7
370
    25
100
AcDbLine
 10
172.3411965843
 20
98.0403132168
 30
0.0
 11
217.079832658
 21
142.7789492906
 31
0.0
  0
ARC
  5
85
330
1F
100
AcDbEntity
  8
0
  6
Continuous
 62
     7
370
    25
100
AcDbCircle
 10
173.5786334514
 20
96.8028763497
 30
0.0
 40
1.750000000000028
100
AcDbArc
 50
135.0
 51
180.0
  0
ARC
  5
86
330
1F
100
AcDbEntity
  8
0
  6
Continuous
 62
     7
370
    25
100
AcDbCircle
 10
173.5786334514
 20
96.8028763497
 30
0.0
 40
80.25
100
AcDbArc
 50
135.0
 51
180.0
  0
LINE
  5
87
330
1F
100
AcDbEntity
  8
0
  6
Continuous
 62
     7
370
    25
100
AcDbLine
 10
93.3286334514
 20
96.8028763497
 30
0.0
 11
93.3286334514
 21
33.5328904521
 31
0.0
  0
LINE
  5
88
330
1F
100
AcDbEntity
  8
0
  6
Continuous
 62
     7
370
    25
100
AcDbLine
 10
171.8286334514
 20
33.5328904521
 30
0.0
 11
171.8286334514
 21
96.8028763497
 31
0.0
  0
CIRCLE
  5
89
330
1F
100
AcDbEntity
  8
0
  6
Continuous
 62
     7
370
    25
100
AcDbCircle
 10
132.5786334514
 20
43.5328904521
 30
0.0
 40
5.0
  0
CIRCLE
  5
8A
330
1F
100
AcDbEntity
  8
0
  6
Continuous
 62
     7
370
    25
100
AcDbCircle
 10
132.5786334514
 20
43.5328904521
 30
0.0
 40
7.0
  0
CIRCLE
  5
8B
330
1F
100
AcDbEntity
  8
0
  6
Continuous
 62
     7
370
    25
100
AcDbCircle
 10
182.2548236846
 20
163.4618226403
 30
0.0
 40
7.0
  0
CIRCLE
  5
8C
330
1F
100
AcDbEntity
  8
0
  6
Continuous
 62
     7
370
    25
100
AcDbCircle
 10
182.2548236846
 20
163.4618226403
 30
0.0
 40
5.0
  0
LINE
  5
8D
330
1F
100
AcDbEntity
  8
0
  6
Continuous
 62
     7
370
    25
100
AcDbLine
 10
189.3258914965
 20
170.5328904521
 30
0.0
 11
217.079832658
 21
142.7789492906
 31
0.0
  0
LINE
  5
8E
330
1F
100
AcDbEntity
  8
0
  6
Continuous
 62
     7
370
    25
100
AcDbLine
 10
161.5719503349
 20
198.2868316137
 30
0.0
 11
189.3258914965
 21
170.5328904521
 31
0.0
  0
LINE
  5
8F
330
1F
100
AcDbEntity
  8
0
  6
Continuous
 62
     7
370
    25
100
AcDbLine
 10
132.5786334514
 20
33.5328904521
 30
0.0
 11
171.8286334514
 21
33.5328904521
 31
0.0
  0
LINE
  5
90
330
1F
100
AcDbEntity
  8
0
  6
Continuous
 62
     7
370
    25
100
AcDbLine
 10
93.3286334514
 20
33.5328904521
 30
0.0
 11
132.5786334514
 21
33.5328904521
 31
0.0
  0
LINE
  5
91
330
1F
100
AcDbEntity
  8
0
  6
Continuous
 62
     1
370
    25
100
AcDbLine
 10
144.5872554227
 20
125.7942543784
 30
0.0
 11
172.3411965843
 21
98.0403132168
 31
0.0
  0
LINE
  5
92
330
1F
100
AcDbEntity
  8
0
  6
Continuous
 62
     1
370
    25
100
AcDbLine
 10
116.8333142611
 20
153.54819554
 30
0.0
 11
144.5872554227
 21
125.7942543784
 31
0.0
  0
LINE
  5
93
330
1F
100
AcDbEntity
  8
0
  6
Continuous
 62
     1
370
    25
100
AcDbLine
 10
132.5786334514
 20
96.8028763497
 30
0.0
 11
171.8286334514
 21
96.8028763497
 31
0.0
  0
LINE
  5
94
330
1F
100
AcDbEntity
  8
0
  6
Continuous
 62
     1
370
    25
100
AcDbLine
 10
93.3286334514
 20
96.8028763497
 30
0.0
 11
132.5786334514
 21
96.8028763497
 31
0.0
  0
LINE
  5
95
330
1F
100
AcDbEntity
  8
0
  6
Continuous
 62
     7
370
    25
100
AcDbLine
 10
-54.1445157252
 20
156.4618226403
 30
0.0
 11
-54.1445157252
 21
125.7942543784
 31
0.0
  0
LINE
  5
96
330
1F
100
AcDbEntity
  8
0
  6
Continuous
 62
     7
370
    25
100
AcDbLine
 10
-54.1445157252
 20
170.5328904521
 30
0.0
 11
-54.1445157252
 21
168.394200269
 31
0.0
  0
LINE
  5
97
330
1F
100
AcDbEntity
  8
0
  6
Continuous
 62
     7
370
    25
100
AcDbLine
 10
24.3554842748
 20
125.7942543784
 30
0.0
 11
24.3554842748
 21
170.5328904521
 31
0.0
  0
LINE
  5
98
330
1F
100
AcDbEntity
  8
0
  6
Continuous
 62
     7
370
    25
100
AcDbLine
 10
-54.1445157252
 20
170.4618226403
 30
0.0
 11
-69.1445157252
 21
170.4618226403
 31
0.0
  0
LINE
  5
99
330
1F
100
AcDbEntity
  8
0
  6
Continuous
 62
     7
370
    25
100
AcDbLine
 10
-69.1445157252
 20
156.4618226403
 30
0.0
 11
-53.8312536999
 21
156.4618226403
 31
0.0
  0
LINE
  5
9A
330
1F
100
AcDbEntity
  8
0
  6
Continuous
 62
     7
370
    25
100
AcDbLine
 10
-54.1445157252
 20
125.7942543784
 30
0.0
 11
-54.1445157252
 21
96.8028763497
 31
0.0
  0
LINE
  5
9B
330
1F
100
AcDbEntity
  8
0
  6
Continuous
 62
     7
370
    25
100
AcDbLine
 10
24.3554842748
 20
96.8028763497
 30
0.0
 11
24.3554842748
 21
125.7942543784
 31
0.0
  0
LINE
  5
9C
330
1F
100
AcDbEntity
  8
0
  6
Continuous
 62
     7
370
    25
100
AcDbLine
 10
-54.1445157252
 20
36.5564813428
 30
0.0
 11
-54.1445157252
 21
33.5328904521
 31
0.0
  0
LINE
  5
9D
330
1F
100
AcDbEntity
  8
0
  6
Continuous
 62
     7
370
    25
100
AcDbLine
 10
-54.1445157252
 20
96.8028763497
 30
0.0
 11
-54.1445157252
 21
50.5254407518
 31
0.0
  0
LINE
  5
9E
330
1F
100
AcDbEntity
  8
0
  6
Continuous
 62
     7
370
    25
100
AcDbLine
 10
24.3554842748
 20
33.5328904521
 30
0.0
 11
24.3554842748
 21
96.8028763497
 31
0.0
  0
LINE
  5
9F
330
1F
100
AcDbEntity
  8
0
  6
Continuous
 62
     7
370
    25
100
AcDbLine
 10
-54.1431996392
 20
50.5328904521
 30
0.0
 11
-69.1445157252
 21
50.5328904521
 31
0.0
  0
LINE
  5
A0
330
1F
100
AcDbEntity
  8
0
  6
Continuous
 62
     7
370
    25
100
AcDbLine
 10
-69.1445157252
 20
36.5328904521
 30
0.0
 11
-54.1403196342
 21
36.5328904521
 31
0.0
  0
LWPOLYLINE
  5
A1
330
1F
100
AcDbEntity
  8
0
  6
Continuous
 62
     7
370
    25
100
AcDbPolyline
 90
      101
 70
   128
 43
0.0
 10
-54.1445157252
 20
170.5328904521
 10
-54.067064816
 20
168.7902060676
 10
-53.8350177518
 20
167.0543992622
 10
-53.4492903163
 20
165.3323204724
 10
-52.9114047995
 20
163.6307659563
 10
-52.2234839898
 20
161.9564509723
 10
-51.3882427963
 20
160.3159832768
 10
-50.4089775345
 20
158.7158370462
 10
-49.2895529169
 20
157.1623273268
 10
-48.0343868011
 20
155.6615851115
 10
-46.6484327544
 20
154.2195331444
 10
-45.1371605041
 20
152.8418625457
 10
-43.5065343515
 20
151.5340103519
 10
-41.7629896329
 20
150.3011380581
 10
-39.9134073228
 20
149.1481112479
 10
-37.9650868776
 20
148.0794803916
 10
-35.9257174281
 20
147.0994628867
 10
-33.8033474337
 20
146.2119264147
 10
-31.6063529191
 20
145.4203736766
 10
-29.343404418
 20
144.7279285694
 10
-27.0234327544
 20
144.1373238576
 10
-24.6555937964
 20
143.6508903881
 10
-22.2492323227
 20
143.2705478917
 10
-19.8138451426
 20
142.9977974063
 10
-17.3590436167
 20
142.8337153537
 10
-14.8945157252
 20
142.7789492906
 10
-12.4299878336
 20
142.8337153537
 10
-9.9751863078
 20
142.9977974063
 10
-7.5397991277
 20
143.2705478917
 10
-5.1334376539
 20
143.6508903881
 10
-2.765598696
 20
144.1373238576
 10
-0.4456270323
 20
144.7279285694
 10
1.8173214688
 20
145.4203736766
 10
4.0143159833
 20
146.2119264147
 10
6.1366859778
 20
147.0994628867
 10
8.1760554273
 20
148.0794803916
 10
10.1243758725
 20
149.1481112479
 10
11.9739581825
 20
150.3011380581
 10
13.7175029011
 20
151.5340103519
 10
15.3481290538
 20
152.8418625457
 10
16.859401304
 20
154.2195331444
 10
18.2453553508
 20
155.6615851115
 10
19.5005214666
 20
157.1623273268
 10
20.6199460841
 20
158.7158370462
 10
21.5992113459
 20
160.3159832768
 10
22.4344525394
 20
161.9564509723
 10
23.1223733491
 20
163.6307659563
 10
23.6602588659
 20
165.3323204724
 10
24.0459863014
 20
167.0543992622
 10
24.2780333656
 20
168.7902060676
 10
24.3554842748
 20
170.5328904521
 10
24.2780333656
 20
172.2755748367
 10
24.0459863014
 20
174.0113816421
 10
23.6602588659
 20
175.7334604319
 10
23.1223733491
 20
177.435014948
 10
22.4344525394
 20
179.109329932
 10
21.5992113459
 20
180.7497976275
 10
20.6199460841
 20
182.3499438581
 10
19.5005214666
 20
183.9034535775
 10
18.2453553508
 20
185.4041957928
 10
16.859401304
 20
186.8462477599
 10
15.3481290538
 20
188.2239183586
 10
13.7175029011
 20
189.5317705524
 10
11.9739581825
 20
190.7646428462
 10
10.1243758725
 20
191.9176696564
 10
8.1760554273
 20
192.9863005127
 10
6.1366859778
 20
193.9663180176
 10
4.0143159833
 20
194.8538544896
 10
1.8173214688
 20
195.6454072277
 10
-0.4456270323
 20
196.3378523349
 10
-2.765598696
 20
196.9284570467
 10
-5.1334376539
 20
197.4148905162
 10
-7.5397991277
 20
197.7952330126
 10
-9.9751863078
 20
198.067983498
 10
-12.4299878336
 20
198.2320655506
 10
-14.8945157252
 20
198.2868316137
 10
-17.3590436167
 20
198.2320655506
 10
-19.8138451426
 20
198.067983498
 10
-22.2492323227
 20
197.7952330126
 10
-24.6555937964
 20
197.4148905162
 10
-27.0234327544
 20
196.9284570467
 10
-29.343404418
 20
196.3378523349
 10
-31.6063529191
 20
195.6454072277
 10
-33.8033474337
 20
194.8538544896
 10
-35.9257174281
 20
193.9663180176
 10
-37.9650868776
 20
192.9863005127
 10
-39.9134073228
 20
191.9176696564
 10
-41.7629896329
 20
190.7646428462
 10
-43.5065343515
 20
189.5317705524
 10
-45.1371605041
 20
188.2239183586
 10
-46.6484327544
 20
186.8462477599
 10
-48.0343868011
 20
185.4041957928
 10
-49.2895529169
 20
183.9034535775
 10
-50.4089775345
 20
182.3499438581
 10
-51.3882427963
 20
180.7497976275
 10
-52.2234839898
 20
179.109329932
 10
-52.9114047995
 20
177.435014948
 10
-53.4492903163
 20
175.7334604319
 10
-53.8350177518
 20
174.0113816421
 10
-54.067064816
 20
172.2755748367
 10
-54.1445157252
 20
170.5328904521
  0
LWPOLYLINE
  5
A2
330
1F
100
AcDbEntity
  8
0
  6
Continuous
 62
     7
370
    25
100
AcDbPolyline
 90
       90
 70
   128
 43
0.0
 10
-46.3945157252
 20
170.5328904521
 10
-46.3160500174
 20
172.1040656049
 10
-46.0810438064
 20
173.667413242
 10
-45.6906678812
 20
175.2151448443
 10
-45.146867075
 20
176.7395496907
 10
-44.4523505761
 20
178.233033273
 10
-43.6105784309
 20
179.6881551311
 10
-42.6257443057
 20
181.097665921
 10
-41.5027545946
 20
182.454543531
 10
-40.2472039759
 20
183.7520280651
 10
-38.8653475396
 20
184.9836555205
 10
-37.364069625
 20
186.1432899912
 10
-35.7508495232
 20
187.2251542367
 10
-34.0337242154
 20
188.2238584636
 10
-32.2212483337
 20
189.1344271778
 10
-30.3224515417
 20
189.9523239717
 10
-28.3467935495
 20
190.6734741246
 10
-26.3041169858
 20
191.2942849028
 10
-24.2045983626
 20
191.8116634582
 10
-22.058697376
 20
192.2230322368
 10
-19.8771047968
 20
192.52634182
 10
-17.6706892094
 20
192.7200811349
 10
-15.4504428654
 20
192.8032849818
 10
-13.2274269204
 20
192.7755388434
 10
-11.0127163279
 20
192.6369809496
 10
-8.8173446648
 20
192.3883015888
 10
-6.6522491622
 20
192.030739669
 10
-4.528216217
 20
191.5660765459
 10
-2.4558276545
 20
190.9966271476
 10
-0.4454080103
 20
190.3252284424
 10
1.4930269061
 20
189.555225305
 10
3.3498199094
 20
188.6904538522
 10
5.1157205503
 20
187.7352223319
 10
6.7819312006
 20
186.6942896594
 10
8.3401508827
 20
185.5728417091
 10
9.7826166244
 20
184.3764654781
 10
11.1021421342
 20
183.1111212527
 10
12.2921536021
 20
181.7831129142
 10
13.346722451
 20
180.3990565332
 10
14.2605948718
 20
178.9658474091
 10
15.0292179982
 20
177.4906257177
 10
15.6487625884
 20
175.9807409391
 10
16.1161421025
 20
174.4437152435
 10
16.4290280791
 20
172.8872060154
 10
16.5858617361
 20
171.3189677057
 10
16.5858617361
 20
169.7468131986
 10
16.4290280791
 20
168.1785748889
 10
16.1161421025
 20
166.6220656608
 10
15.6487625884
 20
165.0850399652
 10
15.0292179982
 20
163.5751551866
 10
14.2605948718
 20
162.0999334951
 10
13.346722451
 20
160.6667243711
 10
12.2921536021
 20
159.2826679901
 10
11.1021421342
 20
157.9546596516
 10
9.7826166244
 20
156.6893154262
 10
8.3401508827
 20
155.4929391952
 10
6.7819312006
 20
154.3714912448
 10
5.1157205503
 20
153.3305585724
 10
3.3498199094
 20
152.3753270521
 10
1.4930269061
 20
151.5105555993
 10
-0.4454080103
 20
150.7405524619
 10
-2.4558276545
 20
150.0691537567
 10
-4.528216217
 20
149.4997043584
 10
-6.6522491622
 20
149.0350412353
 10
-8.8173446648
 20
148.6774793155
 10
-11.0127163279
 20
148.4287999547
 10
-13.2274269204
 20
148.2902420609
 10
-15.4504428654
 20
148.2624959225
 10
-17.6706892094
 20
148.3456997694
 10
-19.8771047968
 20
148.5394390843
 10
-22.058697376
 20
148.8427486675
 10
-24.2045983626
 20
149.2541174461
 10
-26.3041169858
 20
149.7714960015
 10
-28.3467935495
 20
150.3923067796
 10
-30.3224515417
 20
151.1134569326
 10
-32.2212483337
 20
151.9313537265
 10
-34.0337242154
 20
152.8419224407
 10
-35.7508495232
 20
153.8406266676
 10
-37.364069625
 20
154.922490913
 10
-38.8653475396
 20
156.0821253838
 10
-40.2472039759
 20
157.3137528392
 10
-41.5027545946
 20
158.6112373732
 10
-42.6257443057
 20
159.9681149833
 10
-43.6105784309
 20
161.3776257732
 10
-44.4523505761
 20
162.8327476313
 10
-45.146867075
 20
164.3262312136
 10
-45.6906678812
 20
165.85063606
 10
-46.0810438064
 20
167.3983676623
 10
-46.3160500174
 20
168.9617152994
 10
-46.3945157252
 20
170.5328904521
  0
SPLINE
  5
A3
330
1F
100
AcDbEntity
  8
0
  6
Continuous
 62
     7
370
    25
100
AcDbSpline
210
0.0
220
0.0
230
1.0
 70
     8
 71
     3
 72
    22
 73
    18
 74
     0
 42
0.00000001
 43
0.00000001
 40
0.0
 40
0.0
 40
0.0
 40
0.0
 40
0.0443631585359162
 40
0.1152817902192389
 40
0.1882756499426041
 40
0.2588079836820935
 40
0.3314443335046802
 40
0.4009927613546911
 40
0.472564043489892
 40
0.5420761659119543
 40
0.6135513068381142
 40
0.6840168804467156
 40
0.7564956755270775
 40
0.8274325155977832
 40
0.9004670170009907
 40
0.9706657756853897
 40
1.0
 40
1.0
 40
1.0
 40
1.0
 10
-53.83125369988728
 20
156.4856393491151
 30
0.0
 10
-53.80933066793701
 20
156.4836138821621
 30
0.0
 10
-53.75236163205981
 20
156.4783505180536
 30
0.0
 10
-53.66448376330099
 20
156.6936569437111
 30
0.0
 10
-53.58275461089684
 20
157.1003098773076
 30
0.0
 10
-53.52863160368532
 20
157.7016453875684
 30
0.0
 10
-53.50927975105918
 20
158.4546202194687
 30
0.0
 10
-53.52601935983569
 20
159.3524646453681
 30
0.0
 10
-53.5760041511534
 20
160.3498084825677
 30
0.0
 10
-53.65435613740248
 20
161.440635926096
 30
0.0
 10
-53.75141078273008
 20
162.5802876737564
 30
0.0
 10
-53.85833772938205
 20
163.7596908113193
 30
0.0
 10
-53.96166900993357
 20
164.9279367286125
 30
0.0
 10
-54.05181520035834
 20
166.0715320627274
 30
0.0
 10
-54.11401265611286
 20
167.1220160128399
 30
0.0
 10
-54.14490728817966
 20
167.9114171775791
 30
0.0
 10
-54.14122773980223
 20
168.2842968368375
 30
0.0
 10
-54.14014330834818
 20
168.3941914188893
 30
0.0
  0
LINE
  5
A4
330
1F
100
AcDbEntity
  8
0
  6
Continuous
 62
     7
370
    25
100
AcDbLine
 10
-69.1445157252
 20
170.4618226403
 30
0.0
 11
-69.1445157252
 21
156.4618226403
 31
0.0
  0
LINE
  5
A5
330
1F
100
AcDbEntity
  8
0
  6
Continuous
 62
     7
370
    25
100
AcDbLine
 10
-54.1445157252
 20
33.5328904521
 30
0.0
 11
24.3554842748
 21
33.5328904521
 31
0.0
  0
SPLINE
  5
A6
330
1F
100
AcDbEntity
  8
0
  6
Continuous
 62
     7
370
    25
100
AcDbSpline
210
0.0
220
0.0
230
1.0
 70
     8
 71
     3
 72
    27
 73
    23
 74
     0
 42
0.00000001
 43
0.00000001
 40
0.0
 40
0.0
 40
0.0
 40
0.0
 40
0.0344211168938431
 40
0.0864814910275094
 40
0.1400378015878186
 40
0.1923835550304057
 40
0.246206755758667
 40
0.2992645445363264
 40
0.3538551504927657
 40
0.4069626353189185
 40
0.4616516452288478
 40
0.5140387129418325
 40
0.5679685239043187
 40
0.6199962141588704
 40
0.673503207515933
 40
0.7260840108764729
 40
0.7801536072930781
 40
0.8333424045963943
 40
0.8880870034450258
 40
0.9409979944921096
 40
0.9954860483366813
 40
1.0
 40
1.0
 40
1.0
 40
1.0
 10
-54.14031746825658
 20
36.55648134279695
 30
0.0
 10
-54.14056062589608
 20
36.55508298467861
 30
0.0
 10
-54.14117154840863
 20
36.55156967349126
 30
0.0
 10
-54.10292205303828
 20
36.76764524347379
 30
0.0
 10
-54.03543184567155
 20
37.16685570752493
 30
0.0
 10
-53.94332585409518
 20
37.75441903686313
 30
0.0
 10
-53.83932029755329
 20
38.49741958168445
 30
0.0
 10
-53.73261288510828
 20
39.3931871295681
 30
0.0
 10
-53.63702198324795
 20
40.40317602878951
 30
0.0
 10
-53.56239697792822
 20
41.51416991845119
 30
0.0
 10
-53.51894505956074
 20
42.66946320423839
 30
0.0
 10
-53.51064507636105
 20
43.85523394144607
 30
0.0
 10
-53.53796227696965
 20
45.01273062319197
 30
0.0
 10
-53.59781992961543
 20
46.13536696475841
 30
0.0
 10
-53.68248265826007
 20
47.17619882647627
 30
0.0
 10
-53.78426928448464
 20
48.12757555842539
 30
0.0
 10
-53.89090767938344
 20
48.94948149587133
 30
0.0
 10
-53.99170008340398
 20
49.62739684689691
 30
0.0
 10
-54.07466283306424
 20
50.13374957252202
 30
0.0
 10
-54.12695112442142
 20
50.43480444839871
 30
0.0
 10
-54.14928581682366
 20
50.55977446581046
 30
0.0
 10
-54.14362668688079
 20
50.52788077994834
 30
0.0
 10
-54.14319373483453
 20
50.52544075176442
 30
0.0
  0
LINE
  5
A7
330
1F
100
AcDbEntity
  8
0
  6
Continuous
 62
     7
370
    25
100
AcDbLine
 10
-69.1445157252
 20
50.5328904521
 30
0.0
 11
-69.1445157252
 21
36.5328904521
 31
0.0
  0
LWPOLYLINE
  5
A8
330
1F
100
AcDbEntity
  8
0
  6
Continuous
 62
     1
370
    25
100
AcDbPolyline
 90
       52
 70
   128
 43
0.0
 10
-54.1445157252
 20
125.7942543784
 10
-54.067064816
 20
124.0515699939
 10
-53.8350177518
 20
122.3157631884
 10
-53.4492903163
 20
120.5936843986
 10
-52.9114047995
 20
118.8921298825
 10
-52.2234839898
 20
117.2178148986
 10
-51.3882427963
 20
115.577347203
 10
-50.4089775345
 20
113.9772009725
 10
-49.2895529169
 20
112.423691253
 10
-48.0343868011
 20
110.9229490377
 10
-46.6484327544
 20
109.4808970706
 10
-45.1371605041
 20
108.1032264719
 10
-43.5065343515
 20
106.7953742781
 10
-41.7629896329
 20
105.5625019843
 10
-39.9134073228
 20
104.4094751742
 10
-37.9650868776
 20
103.3408443178
 10
-35.9257174281
 20
102.3608268129
 10
-33.8033474337
 20
101.473290341
 10
-31.6063529191
 20
100.6817376028
 10
-29.343404418
 20
99.9892924956
 10
-27.0234327544
 20
99.3986877838
 10
-24.6555937964
 20
98.9122543143
 10
-22.2492323227
 20
98.5319118179
 10
-19.8138451426
 20
98.2591613326
 10
-17.3590436167
 20
98.0950792799
 10
-14.8945157252
 20
98.0403132168
 10
-12.4299878336
 20
98.0950792799
 10
-9.9751863078
 20
98.2591613326
 10
-7.5397991277
 20
98.5319118179
 10
-5.1334376539
 20
98.9122543143
 10
-2.765598696
 20
99.3986877838
 10
-0.4456270323
 20
99.9892924956
 10
1.8173214688
 20
100.6817376028
 10
4.0143159833
 20
101.473290341
 10
6.1366859778
 20
102.3608268129
 10
8.1760554273
 20
103.3408443178
 10
10.1243758725
 20
104.4094751742
 10
11.9739581825
 20
105.5625019843
 10
13.7175029011
 20
106.7953742781
 10
15.3481290538
 20
108.1032264719
 10
16.859401304
 20
109.4808970706
 10
18.2453553508
 20
110.9229490377
 10
19.5005214666
 20
112.423691253
 10
20.6199460841
 20
113.9772009725
 10
21.5992113459
 20
115.577347203
 10
22.4344525394
 20
117.2178148986
 10
23.1223733491
 20
118.8921298825
 10
23.6602588659
 20
120.5936843986
 10
24.0459863014
 20
122.3157631884
 10
24.2780333656
 20
124.0515699939
 10
24.3554842748
 20
125.7942543784
 10
24.3554842748
 20
125.7942543784
  0
LINE
  5
A9
330
1F
100
AcDbEntity
  8
0
  6
Continuous
 62
     1
370
    25
100
AcDbLine
 10
-54.1445157252
 20
96.8028763497
 30
0.0
 11
24.3554842748
 21
96.8028763497
 31
0.0
  0
INSERT
  5
B5
330
1F
100
AcDbEntity
  8
FORMAT
 62
     7
100
AcDbBlockReference
  2
SW_CENTERMARKSYMBOL_0
 10
-14.8945157252
 20
117.5328904521
 30
0.0
  0
LINE
  5
B6
330
1F
100
AcDbEntity
  8
0
  6
Continuous
 62
     7
370
    25
100
AcDbLine
 10
139.5786334514
 20
311.787671543
 30
0.0
 11
139.5786334514
 21
327.4131778145
 31
0.0
  0
LINE
  5
B7
330
1F
100
AcDbEntity
  8
0
  6
Continuous
 62
     7
370
    25
100
AcDbLine
 10
125.5786334514
 20
327.4131778145
 30
0.0
 11
125.5786334514
 21
311.7839300081
 31
0.0
  0
LINE
  5
B8
330
1F
100
AcDbEntity
  8
0
  6
Continuous
 62
     7
370
    25
100
AcDbLine
 10
144.5872554227
 20
312.4131778145
 30
0.0
 11
139.5786334514
 21
312.4131778145
 31
0.0
  0
LINE
  5
B9
330
1F
100
AcDbEntity
  8
0
  6
Continuous
 62
     7
370
    25
100
AcDbLine
 10
132.5786334514
 20
233.9131778145
 30
0.0
 11
144.5872554227
 21
233.9131778145
 31
0.0
  0
LINE
  5
BA
330
1F
100
AcDbEntity
  8
0
  6
Continuous
 62
     7
370
    25
100
AcDbLine
 10
177.319851123
 20
312.4131778145
 30
0.0
 11
144.5872554227
 21
312.4131778145
 31
0.0
  0
LINE
  5
BB
330
1F
100
AcDbEntity
  8
0
  6
Continuous
 62
     7
370
    25
100
AcDbLine
 10
189.3258914965
 20
312.4131778145
 30
0.0
 11
189.2548236846
 21
312.4131778145
 31
0.0
  0
LINE
  5
BC
330
1F
100
AcDbEntity
  8
0
  6
Continuous
 62
     7
370
    25
100
AcDbLine
 10
144.5872554227
 20
233.9131778145
 30
0.0
 11
189.3258914965
 21
233.9131778145
 31
0.0
  0
LINE
  5
BD
330
1F
100
AcDbEntity
  8
0
  6
Continuous
 62
     7
370
    25
100
AcDbLine
 10
189.2548236846
 20
312.1000010553
 30
0.0
 11
189.2548236846
 21
327.4131778145
 31
0.0
  0
LINE
  5
BE
330
1F
100
AcDbEntity
  8
0
  6
Continuous
 62
     7
370
    25
100
AcDbLine
 10
175.2548236846
 20
327.4131778145
 30
0.0
 11
175.2548236846
 21
312.4131778145
 31
0.0
  0
CIRCLE
  5
BF
330
1F
100
AcDbEntity
  8
0
  6
Continuous
 62
     7
370
    25
100
AcDbCircle
 10
132.5786334514
 20
273.1631778145
 30
0.0
 40
31.5
  0
CIRCLE
  5
C0
330
1F
100
AcDbEntity
  8
0
  6
Continuous
 62
     7
370
    25
100
AcDbCircle
 10
132.5786334514
 20
273.1631778145
 30
0.0
 40
39.25
  0
LINE
  5
C1
330
1F
100
AcDbEntity
  8
0
  6
Continuous
 62
     7
370
    25
100
AcDbLine
 10
139.5786334514
 20
327.4131778145
 30
0.0
 11
125.5786334514
 21
327.4131778145
 31
0.0
  0
LWPOLYLINE
  5
C2
330
1F
100
AcDbEntity
  8
0
  6
Continuous
 62
     7
370
    25
100
AcDbPolyline
 90
       52
 70
   128
 43
0.0
 10
189.3258914965
 20
312.4131778145
 10
191.068575881
 20
312.3357269053
 10
192.8043826864
 20
312.1036798411
 10
194.5264614763
 20
311.7179524056
 10
196.2280159923
 20
311.1800668888
 10
197.9023309763
 20
310.4921460791
 10
199.5427986718
 20
309.6569048856
 10
201.1429449024
 20
308.6776396238
 10
202.6964546219
 20
307.5582150062
 10
204.1971968371
 20
306.3030488904
 10
205.6392488042
 20
304.9170948437
 10
207.0169194029
 20
303.4058225934
 10
208.3247715967
 20
301.7751964408
 10
209.5576438906
 20
300.0316517222
 10
210.7106707007
 20
298.1820694121
 10
211.7793015571
 20
296.2337489669
 10
212.7593190619
 20
294.1943795174
 10
213.6468555339
 20
292.072009523
 10
214.438408272
 20
289.8750150084
 10
215.1308533792
 20
287.6120665073
 10
215.7214580911
 20
285.2920948437
 10
216.2078915605
 20
282.9242558857
 10
216.588234057
 20
280.517894412
 10
216.8609845423
 20
278.0825072319
 10
217.025066595
 20
275.627705706
 10
217.079832658
 20
273.1631778145
 10
217.025066595
 20
270.6986499229
 10
216.8609845423
 20
268.2438483971
 10
216.588234057
 20
265.808461217
 10
216.2078915605
 20
263.4020997432
 10
215.7214580911
 20
261.0342607853
 10
215.1308533792
 20
258.7142891216
 10
214.438408272
 20
256.4513406205
 10
213.6468555339
 20
254.254346106
 10
212.7593190619
 20
252.1319761115
 10
211.7793015571
 20
250.092606662
 10
210.7106707007
 20
248.1442862168
 10
209.5576438906
 20
246.2947039068
 10
208.3247715967
 20
244.5511591882
 10
207.0169194029
 20
242.9205330355
 10
205.6392488042
 20
241.4092607853
 10
204.1971968371
 20
240.0233067385
 10
202.6964546219
 20
238.7681406227
 10
201.1429449024
 20
237.6487160052
 10
199.5427986718
 20
236.6694507434
 10
197.9023309763
 20
235.8342095499
 10
196.2280159923
 20
235.1462887402
 10
194.5264614763
 20
234.6084032234
 10
192.8043826864
 20
234.2226757879
 10
191.068575881
 20
233.9906287237
 10
189.3258914965
 20
233.9131778145
 10
189.3258914965
 20
233.9131778145
  0
SPLINE
  5
C3
330
1F
100
AcDbEntity
  8
0
  6
Continuous
 62
     7
370
    25
100
AcDbSpline
210
0.0
220
0.0
230
1.0
 70
     8
 71
     3
 72
    22
 73
    18
 74
     0
 42
0.00000001
 43
0.00000001
 40
0.0
 40
0.0
 40
0.0
 40
0.0
 40
0.0227897269338547
 40
0.0946660021375316
 40
0.164068860737174
 40
0.235445515191149
 40
0.3055757285984226
 40
0.3776930280114722
 40
0.4486099357242044
 40
0.5216020210299807
 40
0.5921326401894484
 40
0.6647672242852026
 40
0.734313961473093
 40
0.8058835037723354
 40
0.8753939364148308
 40
0.9468673398421418
 40
1.0
 40
1.0
 40
1.0
 40
1.0
 10
177.3198645217351
 20
312.4094596876628
 30
0.0
 10
177.4044235510508
 20
312.4104930226956
 30
0.0
 10
177.7556723954614
 20
312.4147853819988
 30
0.0
 10
178.5021032134964
 20
312.3868308587487
 30
0.0
 10
179.5356372165947
 20
312.3280166069162
 30
0.0
 10
180.6437910694858
 20
312.2424552194611
 30
0.0
 10
181.8067633598106
 20
312.1406434233177
 30
0.0
 10
182.9804678210751
 20
312.0340014642068
 30
0.0
 10
184.1494206746173
 20
311.9331396278993
 30
0.0
 10
185.2579604894011
 20
311.8514183079577
 30
0.0
 10
186.2902000464454
 20
311.7972933106199
 30
0.0
 10
187.1936772530086
 20
311.7779417217487
 30
0.0
 10
187.9613900897191
 20
311.7946822567798
 30
0.0
 10
188.5621815546009
 20
311.8446630515404
 30
0.0
 10
188.9863916445542
 20
311.9230299023508
 30
0.0
 10
189.2255541442523
 20
312.0120777347451
 30
0.0
 10
189.2335914271081
 20
312.0737175318542
 30
0.0
 10
189.2370185654533
 20
312.1000010552862
 30
0.0
  0
LINE
  5
C4
330
1F
100
AcDbEntity
  8
0
  6
Continuous
 62
     7
370
    25
100
AcDbLine
 10
189.2548236846
 20
327.4131778145
 30
0.0
 11
175.2548236846
 21
327.4131778145
 31
0.0
  0
LWPOLYLINE
  5
C5
330
1F
100
AcDbEntity
  8
0
  6
Continuous
 62
     1
370
    25
100
AcDbPolyline
 90
       52
 70
   128
 43
0.0
 10
144.5872554227
 20
312.4131778145
 10
146.3299398072
 20
312.3357269053
 10
148.0657466126
 20
312.1036798411
 10
149.7878254025
 20
311.7179524056
 10
151.4893799186
 20
311.1800668888
 10
153.1636949025
 20
310.4921460791
 10
154.8041625981
 20
309.6569048856
 10
156.4043088286
 20
308.6776396238
 10
157.9578185481
 20
307.5582150062
 10
159.4585607634
 20
306.3030488904
 10
160.9006127305
 20
304.9170948437
 10
162.2782833292
 20
303.4058225934
 10
163.586135523
 20
301.7751964408
 10
164.8190078168
 20
300.0316517222
 10
165.9720346269
 20
298.1820694121
 10
167.0406654833
 20
296.2337489669
 10
168.0206829882
 20
294.1943795174
 10
168.9082194601
 20
292.072009523
 10
169.6997721983
 20
289.8750150084
 10
170.3922173055
 20
287.6120665073
 10
170.9828220173
 20
285.2920948437
 10
171.4692554868
 20
282.9242558857
 10
171.8495979832
 20
280.517894412
 10
172.1223484685
 20
278.0825072319
 10
172.2864305212
 20
275.627705706
 10
172.3411965843
 20
273.1631778145
 10
172.2864305212
 20
270.6986499229
 10
172.1223484685
 20
268.2438483971
 10
171.8495979832
 20
265.808461217
 10
171.4692554868
 20
263.4020997432
 10
170.9828220173
 20
261.0342607853
 10
170.3922173055
 20
258.7142891216
 10
169.6997721983
 20
256.4513406205
 10
168.9082194601
 20
254.254346106
 10
168.0206829882
 20
252.1319761115
 10
167.0406654833
 20
250.092606662
 10
165.9720346269
 20
248.1442862168
 10
164.8190078168
 20
246.2947039068
 10
163.586135523
 20
244.5511591882
 10
162.2782833292
 20
242.9205330355
 10
160.9006127305
 20
241.4092607853
 10
159.4585607634
 20
240.0233067385
 10
157.9578185481
 20
238.7681406227
 10
156.4043088286
 20
237.6487160052
 10
154.8041625981
 20
236.6694507434
 10
153.1636949025
 20
235.8342095499
 10
151.4893799186
 20
235.1462887402
 10
149.7878254025
 20
234.6084032234
 10
148.0657466126
 20
234.2226757879
 10
146.3299398072
 20
233.9906287237
 10
144.5872554227
 20
233.9131778145
 10
144.5872554227
 20
233.9131778145
  0
LWPOLYLINE
  5
C6
330
1F
100
AcDbEntity
  8
0
  6
Continuous
 62
     1
370
    25
100
AcDbPolyline
 90
       40
 70
   128
 43
0.0
 10
139.6131213368
 20
303.8676722768
 10
138.3805961842
 20
303.4155291643
 10
136.8871126019
 20
302.7210126654
 10
135.4319907438
 20
301.8792405202
 10
134.0224799538
 20
300.894406395
 10
132.6656023438
 20
299.7714166839
 10
131.3681178098
 20
298.5158660652
 10
130.1364903543
 20
297.1340096289
 10
128.9768558836
 20
295.6327317143
 10
127.8949916382
 20
294.0195116125
 10
126.8962874112
 20
292.3023863047
 10
125.985718697
 20
290.489910423
 10
125.1678219031
 20
288.591113631
 10
124.4466717502
 20
286.6154556388
 10
123.825860972
 20
284.5727790751
 10
123.3084824167
 20
282.4732604519
 10
122.8971136381
 20
280.3273594653
 10
122.5938040548
 20
278.1457668861
 10
122.40006474
 20
275.9393512987
 10
122.316860893
 20
273.7191049547
 10
122.3446070314
 20
271.4960890097
 10
122.4831649253
 20
269.2813784172
 10
122.7318442861
 20
267.0860067541
 10
123.0894062058
 20
264.9209112515
 10
123.554069329
 20
262.7968783063
 10
124.1235187273
 20
260.7244897438
 10
124.7949174324
 20
258.7140700996
 10
125.5649205698
 20
256.7756351832
 10
126.4296920227
 20
254.9188421799
 10
127.384923543
 20
253.152941539
 10
128.4258562154
 20
251.4867308887
 10
129.5473041658
 20
249.9285112066
 10
130.7436803967
 20
248.4860454649
 10
132.0090246221
 20
247.1665199551
 10
133.3370329607
 20
245.9765084872
 10
134.7210893416
 20
244.9219396383
 10
136.1542984657
 20
244.0080672175
 10
137.6295201572
 20
243.2394440911
 10
139.1394049357
 20
242.6198995009
 10
139.6131213368
 20
242.4586833521
  0
INSERT
  5
D2
330
1F
100
AcDbEntity
  8
FORMAT
 62
     7
100
AcDbBlockReference
  2
SW_CENTERMARKSYMBOL_1
 10
132.5786334514
 20
273.1631778145
 30
0.0
  0
LINE
  5
D3
330
1F
100
AcDbEntity
  8
0
  6
Continuous
 62
     7
370
    25
100
AcDbLine
 10
280.0144522752
 20
96.8028763497
 30
0.0
 11
280.0144522752
 21
33.5328904521
 31
0.0
  0
LINE
  5
D4
330
1F
100
AcDbEntity
  8
0
  6
Continuous
 62
     7
370
    25
100
AcDbLine
 10
358.5144522752
 20
50.5254407518
 30
0.0
 11
358.5144522752
 21
96.8028763497
 31
0.0
  0
LINE
  5
D5
330
1F
100
AcDbEntity
  8
0
  6
Continuous
 62
     7
370
    25
100
AcDbLine
 10
358.5144522752
 20
33.5328904521
 30
0.0
 11
358.5144522752
 21
36.5564813428
 31
0.0
  0
LINE
  5
D6
330
1F
100
AcDbEntity
  8
0
  6
Continuous
 62
     7
370
    25
100
AcDbLine
 10
358.5144522752
 20
96.8028763497
 30
0.0
 11
358.5144522752
 21
125.7942543784
 31
0.0
  0
LINE
  5
D7
330
1F
100
AcDbEntity
  8
0
  6
Continuous
 62
     7
370
    25
100
AcDbLine
 10
280.0144522752
 20
125.7942543784
 30
0.0
 11
280.0144522752
 21
96.8028763497
 31
0.0
  0
LINE
  5
D8
330
1F
100
AcDbEntity
  8
0
  6
Continuous
 62
     7
370
    25
100
AcDbLine
 10
280.0144522752
 20
170.5328904521
 30
0.0
 11
280.0144522752
 21
125.7942543784
 31
0.0
  0
LINE
  5
D9
330
1F
100
AcDbEntity
  8
0
  6
Continuous
 62
     7
370
    25
100
AcDbLine
 10
358.5144522752
 20
170.4618226403
 30
0.0
 11
358.5144522752
 21
170.5328904521
 31
0.0
  0
LINE
  5
DA
330
1F
100
AcDbEntity
  8
0
  6
Continuous
 62
     7
370
    25
100
AcDbLine
 10
358.5144522752
 20
125.7942543784
 30
0.0
 11
358.5144522752
 21
158.5268500787
 31
0.0
  0
LINE
  5
DB
330
1F
100
AcDbEntity
  8
0
  6
Continuous
 62
     7
370
    25
100
AcDbLine
 10
358.5102561842
 20
36.5328904521
 30
0.0
 11
373.5144522752
 21
36.5328904521
 31
0.0
  0
LINE
  5
DC
330
1F
100
AcDbEntity
  8
0
  6
Continuous
 62
     7
370
    25
100
AcDbLine
 10
373.5144522752
 20
50.5328904521
 30
0.0
 11
358.5131361892
 21
50.5328904521
 31
0.0
  0
LINE
  5
DD
330
1F
100
AcDbEntity
  8
0
  6
Continuous
 62
     7
370
    25
100
AcDbLine
 10
358.5144522752
 20
156.4618226403
 30
0.0
 11
373.5144522752
 21
156.4618226403
 31
0.0
  0
LINE
  5
DE
330
1F
100
AcDbEntity
  8
0
  6
Continuous
 62
     7
370
    25
100
AcDbLine
 10
373.5144522752
 20
170.4618226403
 30
0.0
 11
358.201253564
 21
170.4618226403
 31
0.0
  0
LINE
  5
DF
330
1F
100
AcDbEntity
  8
0
  6
Continuous
 62
     7
370
    25
100
AcDbLine
 10
280.0144522752
 20
33.5328904521
 30
0.0
 11
358.5144522752
 21
33.5328904521
 31
0.0
  0
SPLINE
  5
E0
330
1F
100
AcDbEntity
  8
0
  6
Continuous
 62
     7
370
    25
100
AcDbSpline
210
0.0
220
0.0
230
1.0
 70
     8
 71
     3
 72
    17
 73
    13
 74
     0
 42
0.00000001
 43
0.00000001
 40
0.0
 40
0.0
 40
0.0
 40
0.0
 40
0.1046855649738291
 40
0.2124375488652896
 40
0.3171145642517204
 40
0.4247703903167021
 40
0.5304955533957645
 40
0.6392431481553622
 40
0.7456413099738035
 40
0.8551874624013476
 40
0.9604519975035815
 40
0.9999999999999999
 40
0.9999999999999999
 40
0.9999999999999999
 40
0.9999999999999999
 10
357.8852044687645
 20
43.53289045214523
 30
0.0
 10
357.8885564997703
 20
43.14842997877929
 30
0.0
 10
357.8953587484925
 20
42.36824752843031
 30
0.0
 10
357.948563274295
 20
41.23649566644448
 30
0.0
 10
358.0275530058769
 20
40.16030401149691
 30
0.0
 10
358.1255851560312
 20
39.18514726437845
 30
0.0
 10
358.2327450989405
 20
38.32026613010019
 30
0.0
 10
358.3357015489358
 20
37.60569347900436
 30
0.0
 10
358.4250237126866
 20
37.04797539344173
 30
0.0
 10
358.4858698940218
 20
36.69328296523958
 30
0.0
 10
358.5154552899904
 20
36.52724106341856
 30
0.0
 10
358.5113697662688
 20
36.55020887993012
 30
0.0
 10
358.5102540182471
 20
36.55648134279693
 30
0.0
  0
SPLINE
  5
E1
330
1F
100
AcDbEntity
  8
0
  6
Continuous
 62
     7
370
    25
100
AcDbSpline
210
0.0
220
0.0
230
1.0
 70
     8
 71
     3
 72
    16
 73
    12
 74
     0
 42
0.00000001
 43
0.00000001
 40
0.0
 40
0.0
 40
0.0
 40
0.0
 40
0.0953810767028749
 40
0.2028317255095048
 40
0.3071366531404933
 40
0.4143913302328461
 40
0.5200574954255205
 40
0.6287387664513191
 40
0.7351837317871143
 40
0.844773236040364
 40
1.0
 40
1.0
 40
1.0
 40
1.0
 10
358.513130284825
 20
50.52544075176439
 30
0.0
 10
358.5109320197677
 20
50.51320783415535
 30
0.0
 10
358.5062573200254
 20
50.48719403904602
 30
0.0
 10
358.4577728338221
 20
50.21104057052201
 30
0.0
 10
358.3823163640654
 20
49.75679732142847
 30
0.0
 10
358.2865659678131
 20
49.13004423716983
 30
0.0
 10
358.1801594088051
 20
48.340012829017
 30
0.0
 10
358.0756441144133
 20
47.41622017808866
 30
0.0
 10
357.9846856818504
 20
46.36949536895452
 30
0.0
 10
357.9049613303981
 20
45.07777693624788
 30
0.0
 10
357.8925056104631
 20
44.10380274265964
 30
0.0
 10
357.8852044687645
 20
43.53289045214523
 30
0.0
  0
LWPOLYLINE
  5
E2
330
1F
100
AcDbEntity
  8
0
  6
Continuous
 62
     7
370
    25
100
AcDbPolyline
 90
       51
 70
   128
 43
0.0
 10
280.0144522752
 20
170.5328904521
 10
280.0919031843
 20
172.2755748367
 10
280.3239502486
 20
174.0113816421
 10
280.7096776841
 20
175.7334604319
 10
281.2475632009
 20
177.435014948
 10
281.9354840106
 20
179.109329932
 10
282.770725204
 20
180.7497976275
 10
283.7499904659
 20
182.3499438581
 10
284.8694150834
 20
183.9034535775
 10
286.1245811992
 20
185.4041957928
 10
287.5105352459
 20
186.8462477599
 10
289.0218074962
 20
188.2239183586
 10
290.6524336489
 20
189.5317705524
 10
292.3959783675
 20
190.7646428462
 10
294.2455606775
 20
191.9176696564
 10
296.1938811227
 20
192.9863005127
 10
298.2332505722
 20
193.9663180176
 10
300.3556205667
 20
194.8538544896
 10
302.5526150812
 20
195.6454072277
 10
304.8155635823
 20
196.3378523349
 10
307.1355352459
 20
196.9284570467
 10
309.5033742039
 20
197.4148905162
 10
311.9097356777
 20
197.7952330126
 10
314.3451228578
 20
198.067983498
 10
316.7999243836
 20
198.2320655506
 10
319.2644522752
 20
198.2868316137
 10
321.7289801667
 20
198.2320655506
 10
324.1837816926
 20
198.067983498
 10
326.6191688726
 20
197.7952330126
 10
329.0255303464
 20
197.4148905162
 10
331.3933693044
 20
196.9284570467
 10
333.713340968
 20
196.3378523349
 10
335.9762894691
 20
195.6454072277
 10
338.1732839837
 20
194.8538544896
 10
340.2956539781
 20
193.9663180176
 10
342.3350234276
 20
192.9863005127
 10
344.2833438728
 20
191.9176696564
 10
346.1329261829
 20
190.7646428462
 10
347.8764709014
 20
189.5317705524
 10
349.5070970541
 20
188.2239183586
 10
351.0183693044
 20
186.8462477599
 10
352.4043233511
 20
185.4041957928
 10
353.6594894669
 20
183.9034535775
 10
354.7789140844
 20
182.3499438581
 10
355.7581793463
 20
180.7497976275
 10
356.5934205397
 20
179.109329932
 10
357.2813413495
 20
177.435014948
 10
357.8192268663
 20
175.7334604319
 10
358.2049543018
 20
174.0113816421
 10
358.437001366
 20
172.2755748367
 10
358.5144522752
 20
170.5328904521
  0
SPLINE
  5
E3
330
1F
100
AcDbEntity
  8
0
  6
Continuous
 62
     7
370
    25
100
AcDbSpline
210
0.0
220
0.0
230
1.0
 70
     8
 71
     3
 72
    12
 73
     8
 74
     0
 42
0.00000001
 43
0.00000001
 40
0.0
 40
0.0
 40
0.0
 40
0.0
 40
0.2116262772666187
 40
0.4293341772793147
 40
0.6409775580930228
 40
0.8588786948073421
 40
1.0
 40
1.0
 40
1.0
 40
1.0
 10
358.201099537088
 20
163.4618226402797
 30
0.0
 10
358.2358378529006
 20
163.0749077895271
 30
0.0
 10
358.3063127789451
 20
162.2899590994561
 30
0.0
 10
358.3999927913297
 20
161.1481880922693
 30
0.0
 10
358.4707085358547
 20
160.0652868033412
 30
0.0
 10
358.5106329535851
 20
159.1768996781142
 30
0.0
 10
358.5107055950859
 20
158.7102594244779
 30
0.0
 10
358.5107341483522
 20
158.5268366799308
 30
0.0
  0
SPLINE
  5
E4
330
1F
100
AcDbEntity
  8
0
  6
Continuous
 62
     7
370
    25
100
AcDbSpline
210
0.0
220
0.0
230
1.0
 70
     8
 71
     3
 72
    16
 73
    12
 74
     0
 42
0.00000001
 43
0.00000001
 40
0.0
 40
0.0
 40
0.0
 40
0.0
 40
0.094110553139693
 40
0.2032857420604881
 40
0.3095385976285836
 40
0.4189546875931091
 40
0.5237790722623614
 40
0.6316924961204693
 40
0.7357612389765388
 40
0.8427906452436652
 40
0.9999999999999999
 40
0.9999999999999999
 40
0.9999999999999999
 40
0.9999999999999999
 10
358.2012535640067
 20
170.4521259803641
 30
0.0
 10
358.1702397973092
 20
170.4413487229861
 30
0.0
 10
358.1032477717939
 20
170.4180690514681
 30
0.0
 10
358.0106136654684
 20
170.1413271549487
 30
0.0
 10
357.9348673845942
 20
169.6777934528446
 30
0.0
 10
357.8900191611115
 20
169.0380704560194
 30
0.0
 10
357.8801957442801
 20
168.237866832243
 30
0.0
 10
357.9060734963904
 20
167.3178256454343
 30
0.0
 10
357.9647120693377
 20
166.2856510709552
 30
0.0
 10
358.0622234723782
 20
165.0057740015899
 30
0.0
 10
358.1492957308621
 20
164.0377502294627
 30
0.0
 10
358.201099537088
 20
163.4618226402797
 30
0.0
  0
LINE
  5
E5
330
1F
100
AcDbEntity
  8
0
  6
Continuous
 62
     7
370
    25
100
AcDbLine
 10
373.5144522752
 20
43.5328904521
 30
0.0
 11
373.5144522752
 21
50.5328904521
 31
0.0
  0
LINE
  5
E6
330
1F
100
AcDbEntity
  8
0
  6
Continuous
 62
     7
370
    25
100
AcDbLine
 10
373.5144522752
 20
36.5328904521
 30
0.0
 11
373.5144522752
 21
43.5328904521
 31
0.0
  0
LINE
  5
E7
330
1F
100
AcDbEntity
  8
0
  6
Continuous
 62
     7
370
    25
100
AcDbLine
 10
373.5144522752
 20
163.4618226403
 30
0.0
 11
373.5144522752
 21
170.4618226403
 31
0.0
  0
LINE
  5
E8
330
1F
100
AcDbEntity
  8
0
  6
Continuous
 62
     7
370
    25
100
AcDbLine
 10
373.5144522752
 20
156.4618226403
 30
0.0
 11
373.5144522752
 21
163.4618226403
 31
0.0
  0
LINE
  5
E9
330
1F
100
AcDbEntity
  8
0
  6
Continuous
 62
     1
370
    25
100
AcDbLine
 10
280.0144522752
 20
96.8028763497
 30
0.0
 11
358.5144522752
 21
96.8028763497
 31
0.0
  0
LWPOLYLINE
  5
EA
330
1F
100
AcDbEntity
  8
0
  6
Continuous
 62
     1
370
    25
100
AcDbPolyline
 90
       51
 70
   128
 43
0.0
 10
280.0144522752
 20
125.7942543784
 10
280.0919031843
 20
127.5369387629
 10
280.3239502486
 20
129.2727455683
 10
280.7096776841
 20
130.9948243582
 10
281.2475632009
 20
132.6963788742
 10
281.9354840106
 20
134.3706938582
 10
282.770725204
 20
136.0111615537
 10
283.7499904659
 20
137.6113077843
 10
284.8694150834
 20
139.1648175038
 10
286.1245811992
 20
140.665559719
 10
287.5105352459
 20
142.1076116861
 10
289.0218074962
 20
143.4852822848
 10
290.6524336489
 20
144.7931344787
 10
292.3959783675
 20
146.0260067725
 10
294.2455606775
 20
147.1790335826
 10
296.1938811227
 20
148.247664439
 10
298.2332505722
 20
149.2276819438
 10
300.3556205667
 20
150.1152184158
 10
302.5526150812
 20
150.9067711539
 10
304.8155635823
 20
151.5992162611
 10
307.1355352459
 20
152.189820973
 10
309.5033742039
 20
152.6762544424
 10
311.9097356777
 20
153.0565969389
 10
314.3451228578
 20
153.3293474242
 10
316.7999243836
 20
153.4934294769
 10
319.2644522752
 20
153.54819554
 10
321.7289801667
 20
153.4934294769
 10
324.1837816926
 20
153.3293474242
 10
326.6191688726
 20
153.0565969389
 10
329.0255303464
 20
152.6762544424
 10
331.3933693044
 20
152.189820973
 10
333.713340968
 20
151.5992162611
 10
335.9762894691
 20
150.9067711539
 10
338.1732839837
 20
150.1152184158
 10
340.2956539781
 20
149.2276819438
 10
342.3350234276
 20
148.247664439
 10
344.2833438728
 20
147.1790335826
 10
346.1329261829
 20
146.0260067725
 10
347.8764709014
 20
144.7931344787
 10
349.5070970541
 20
143.4852822848
 10
351.0183693044
 20
142.1076116861
 10
352.4043233511
 20
140.665559719
 10
353.6594894669
 20
139.1648175038
 10
354.7789140844
 20
137.6113077843
 10
355.7581793463
 20
136.0111615537
 10
356.5934205397
 20
134.3706938582
 10
357.2813413495
 20
132.6963788742
 10
357.8192268663
 20
130.9948243582
 10
358.2049543018
 20
129.2727455683
 10
358.437001366
 20
127.5369387629
 10
358.5144522752
 20
125.7942543784
  0
INSERT
  5
F6
330
1F
100
AcDbEntity
  8
FORMAT
 62
     7
100
AcDbBlockReference
  2
SW_CENTERMARKSYMBOL_2
 10
319.2644522752
 20
117.5328904521
 30
0.0
  0
LINE
  5
F7
330
1F
100
AcDbEntity
  8
0
  6
Continuous
 62
     7
370
    25
100
AcDbLine
 10
189.3258914965
 20
-45.8676047732
 30
0.0
 11
144.5872554227
 21
-45.8676047732
 31
0.0
  0
LINE
  5
F8
330
1F
100
AcDbEntity
  8
0
  6
Continuous
 62
     7
370
    25
100
AcDbLine
 10
187.1872013133
 20
-124.3676047732
 30
0.0
 11
189.3258914965
 21
-124.3676047732
 31
0.0
  0
LINE
  5
F9
330
1F
100
AcDbEntity
  8
0
  6
Continuous
 62
     7
370
    25
100
AcDbLine
 10
144.5872554227
 20
-124.3676047732
 30
0.0
 11
175.2548236846
 21
-124.3676047732
 31
0.0
  0
LINE
  5
FA
330
1F
100
AcDbEntity
  8
0
  6
Continuous
 62
     7
370
    25
100
AcDbLine
 10
175.2548236846
 20
-124.0542520352
 30
0.0
 11
175.2548236846
 21
-139.3676047732
 31
0.0
  0
LINE
  5
FB
330
1F
100
AcDbEntity
  8
0
  6
Continuous
 62
     7
370
    25
100
AcDbLine
 10
189.2548236846
 20
-139.3676047732
 30
0.0
 11
189.2548236846
 21
-124.3676047732
 31
0.0
  0
LINE
  5
FC
330
1F
100
AcDbEntity
  8
0
  6
Continuous
 62
     7
370
    25
100
AcDbLine
 10
132.5786334514
 20
-124.3676047732
 30
0.0
 11
144.5872554227
 21
-124.3676047732
 31
0.0
  0
LINE
  5
FD
330
1F
100
AcDbEntity
  8
0
  6
Continuous
 62
     7
370
    25
100
AcDbLine
 10
144.5872554227
 20
-45.8676047732
 30
0.0
 11
132.5786334514
 21
-45.8676047732
 31
0.0
  0
LINE
  5
FE
330
1F
100
AcDbEntity
  8
0
  6
Continuous
 62
     7
370
    25
100
AcDbLine
 10
125.5786334514
 20
-123.7383569668
 30
0.0
 11
125.5786334514
 21
-139.3676047732
 31
0.0
  0
LINE
  5
FF
330
1F
100
AcDbEntity
  8
0
  6
Continuous
 62
     7
370
    25
100
AcDbLine
 10
139.5786334514
 20
-139.3676047732
 30
0.0
 11
139.5786334514
 21
-124.3676047732
 31
0.0
  0
LWPOLYLINE
  5
100
330
1F
100
AcDbEntity
  8
0
  6
Continuous
 62
     7
370
    25
100
AcDbPolyline
 90
      101
 70
   128
 43
0.0
 10
189.3258914965
 20
-124.3676047732
 10
191.068575881
 20
-124.290153864
 10
192.8043826864
 20
-124.0581067998
 10
194.5264614763
 20
-123.6723793643
 10
196.2280159923
 20
-123.1344938475
 10
197.9023309763
 20
-122.4465730378
 10
199.5427986718
 20
-121.6113318443
 10
201.1429449024
 20
-120.6320665825
 10
202.6964546219
 20
-119.5126419649
 10
204.1971968371
 20
-118.2574758492
 10
205.6392488042
 20
-116.8715218024
 10
207.0169194029
 20
-115.3602495522
 10
208.3247715967
 20
-113.7296233995
 10
209.5576438906
 20
-111.9860786809
 10
210.7106707007
 20
-110.1364963709
 10
211.7793015571
 20
-108.1881759257
 10
212.7593190619
 20
-106.1488064761
 10
213.6468555339
 20
-104.0264364817
 10
214.438408272
 20
-101.8294419671
 10
215.1308533792
 20
-99.5664934661
 10
215.7214580911
 20
-97.2465218024
 10
216.2078915605
 20
-94.8786828444
 10
216.588234057
 20
-92.4723213707
 10
216.8609845423
 20
-90.0369341906
 10
217.025066595
 20
-87.5821326647
 10
217.079832658
 20
-85.1176047732
 10
217.025066595
 20
-82.6530768817
 10
216.8609845423
 20
-80.1982753558
 10
216.588234057
 20
-77.7628881757
 10
216.2078915605
 20
-75.356526702
 10
215.7214580911
 20
-72.988687744
 10
215.1308533792
 20
-70.6687160803
 10
214.438408272
 20
-68.4057675793
 10
213.6468555339
 20
-66.2087730647
 10
212.7593190619
 20
-64.0864030703
 10
211.7793015571
 20
-62.0470336207
 10
210.7106707007
 20
-60.0987131756
 10
209.5576438906
 20
-58.2491308655
 10
208.3247715967
 20
-56.5055861469
 10
207.0169194029
 20
-54.8749599943
 10
205.6392488042
 20
-53.363687744
 10
204.1971968371
 20
-51.9777336973
 10
202.6964546219
 20
-50.7225675815
 10
201.1429449024
 20
-49.6031429639
 10
199.5427986718
 20
-48.6238777021
 10
197.9023309763
 20
-47.7886365086
 10
196.2280159923
 20
-47.1007156989
 10
194.5264614763
 20
-46.5628301821
 10
192.8043826864
 20
-46.1771027466
 10
191.068575881
 20
-45.9450556824
 10
189.3258914965
 20
-45.8676047732
 10
187.583207112
 20
-45.9450556824
 10
185.8474003065
 20
-46.1771027466
 10
184.1253215167
 20
-46.5628301821
 10
182.4237670006
 20
-47.1007156989
 10
180.7494520167
 20
-47.7886365086
 10
179.1089843211
 20
-48.6238777021
 10
177.5088380906
 20
-49.6031429639
 10
175.9553283711
 20
-50.7225675815
 10
174.4545861558
 20
-51.9777336973
 10
173.0125341887
 20
-53.363687744
 10
171.63486359
 20
-54.8749599943
 10
170.3270113962
 20
-56.5055861469
 10
169.0941391024
 20
-58.2491308655
 10
167.9411122923
 20
-60.0987131756
 10
166.8724814359
 20
-62.0470336207
 10
165.892463931
 20
-64.0864030703
 10
165.004927459
 20
-66.2087730647
 10
164.2133747209
 20
-68.4057675793
 10
163.5209296137
 20
-70.6687160803
 10
162.9303249019
 20
-72.988687744
 10
162.4438914324
 20
-75.356526702
 10
162.063548936
 20
-77.7628881757
 10
161.7907984507
 20
-80.1982753558
 10
161.626716398
 20
-82.6530768817
 10
161.5719503349
 20
-85.1176047732
 10
161.626716398
 20
-87.5821326647
 10
161.7907984507
 20
-90.0369341906
 10
162.063548936
 20
-92.4723213707
 10
162.4438914324
 20
-94.8786828444
 10
162.9303249019
 20
-97.2465218024
 10
163.5209296137
 20
-99.5664934661
 10
164.2133747209
 20
-101.8294419672
 10
165.004927459
 20
-104.0264364817
 10
165.892463931
 20
-106.1488064761
 10
166.8724814359
 20
-108.1881759257
 10
167.9411122923
 20
-110.1364963709
 10
169.0941391024
 20
-111.9860786809
 10
170.3270113962
 20
-113.7296233995
 10
171.63486359
 20
-115.3602495522
 10
173.0125341887
 20
-116.8715218024
 10
174.4545861558
 20
-118.2574758492
 10
175.9553283711
 20
-119.5126419649
 10
177.5088380906
 20
-120.6320665825
 10
179.1089843211
 20
-121.6113318443
 10
180.7494520167
 20
-122.4465730378
 10
182.4237670006
 20
-123.1344938475
 10
184.1253215167
 20
-123.6723793643
 10
185.8474003065
 20
-124.0581067998
 10
187.583207112
 20
-124.290153864
 10
189.3258914965
 20
-124.3676047732
  0
LWPOLYLINE
  5
101
330
1F
100
AcDbEntity
  8
0
  6
Continuous
 62
     7
370
    25
100
AcDbPolyline
 90
       90
 70
   128
 43
0.0
 10
189.3258914965
 20
-116.6176047732
 10
187.7547163438
 20
-116.5391390655
 10
186.1913687066
 20
-116.3041328544
 10
184.6436371044
 20
-115.9137569292
 10
183.1192322579
 20
-115.369956123
 10
181.6257486757
 20
-114.6754396242
 10
180.1706268176
 20
-113.8336674789
 10
178.7611160276
 20
-112.8488333537
 10
177.4042384176
 20
-111.7258436426
 10
176.1067538835
 20
-110.470293024
 10
174.8751264281
 20
-109.0884365877
 10
173.7154919574
 20
-107.5871586731
 10
172.6336277119
 20
-105.9739385712
 10
171.634923485
 20
-104.2568132635
 10
170.7243547708
 20
-102.4443373817
 10
169.9064579769
 20
-100.5455405897
 10
169.185307824
 20
-98.5698825975
 10
168.5644970458
 20
-96.5272060339
 10
168.0471184904
 20
-94.4276874106
 10
167.6357497119
 20
-92.281786424
 10
167.3324401286
 20
-90.1001938448
 10
167.1387008137
 20
-87.8937782575
 10
167.0554969668
 20
-85.6735319135
 10
167.0832431052
 20
-83.4505159684
 10
167.221800999
 20
-81.235805376
 10
167.4704803598
 20
-79.0404337128
 10
167.8280422796
 20
-76.8753382102
 10
168.2927054028
 20
-74.751305265
 10
168.862154801
 20
-72.6789167025
 10
169.5335535062
 20
-70.6684970584
 10
170.3035566436
 20
-68.730062142
 10
171.1683280964
 20
-66.8732691387
 10
172.1235596167
 20
-65.1073684978
 10
173.1644922892
 20
-63.4411578475
 10
174.2859402395
 20
-61.8829381654
 10
175.4823164705
 20
-60.4404724236
 10
176.7476606959
 20
-59.1209469139
 10
178.0756690344
 20
-57.930935446
 10
179.4597254154
 20
-56.8763665971
 10
180.8929345395
 20
-55.9624941762
 10
182.3681562309
 20
-55.1938710498
 10
183.8780410095
 20
-54.5743264596
 10
185.4150667051
 20
-54.1069469456
 10
186.9715759332
 20
-53.794060969
 10
188.5398142429
 20
-53.637227312
 10
190.11196875
 20
-53.637227312
 10
191.6802070598
 20
-53.794060969
 10
193.2367162878
 20
-54.1069469456
 10
194.7737419835
 20
-54.5743264596
 10
196.283626762
 20
-55.1938710498
 10
197.7588484535
 20
-55.9624941762
 10
199.1920575776
 20
-56.8763665971
 10
200.5761139585
 20
-57.930935446
 10
201.904122297
 20
-59.1209469139
 10
203.1694665225
 20
-60.4404724236
 10
204.3658427534
 20
-61.8829381654
 10
205.4872907038
 20
-63.4411578475
 10
206.5282233762
 20
-65.1073684978
 10
207.4834548965
 20
-66.8732691387
 10
208.3482263493
 20
-68.730062142
 10
209.1182294868
 20
-70.6684970584
 10
209.7896281919
 20
-72.6789167025
 10
210.3590775902
 20
-74.751305265
 10
210.8237407134
 20
-76.8753382102
 10
211.1813026331
 20
-79.0404337128
 10
211.4299819939
 20
-81.235805376
 10
211.5685398878
 20
-83.4505159684
 10
211.5962860262
 20
-85.6735319135
 10
211.5130821792
 20
-87.8937782575
 10
211.3193428644
 20
-90.1001938448
 10
211.0160332811
 20
-92.281786424
 10
210.6046645025
 20
-94.4276874106
 10
210.0872859472
 20
-96.5272060339
 10
209.466475169
 20
-98.5698825975
 10
208.745325016
 20
-100.5455405897
 10
207.9274282221
 20
-102.4443373817
 10
207.016859508
 20
-104.2568132635
 10
206.018155281
 20
-105.9739385712
 10
204.9362910356
 20
-107.5871586731
 10
203.7766565648
 20
-109.0884365877
 10
202.5450291094
 20
-110.470293024
 10
201.2475445754
 20
-111.7258436426
 10
199.8906669654
 20
-112.8488333537
 10
198.4811561754
 20
-113.8336674789
 10
197.0260343173
 20
-114.6754396242
 10
195.532550735
 20
-115.3699561231
 10
194.0081458886
 20
-115.9137569292
 10
192.4604142863
 20
-116.3041328544
 10
190.8970666492
 20
-116.5391390655
 10
189.3258914965
 20
-116.6176047732
  0
SPLINE
  5
102
330
1F
100
AcDbEntity
  8
0
  6
Continuous
 62
     7
370
    25
100
AcDbSpline
210
0.0
220
0.0
230
1.0
 70
     8
 71
     3
 72
    21
 73
    17
 74
     0
 42
0.00000001
 43
0.00000001
 40
0.0
 40
0.0
 40
0.0
 40
0.0
 40
0.0429558396036466
 40
0.1123855498858737
 40
0.1838117142252705
 40
0.2535977327335325
 40
0.3253533337052762
 40
0.3960924741491387
 40
0.4688736710755057
 40
0.5397067063240247
 40
0.6126484989542035
 40
0.6825292498712732
 40
0.754469296235777
 40
0.8238463016026469
 40
0.8951970212253187
 40
1.0
 40
1.0
 40
1.0
 40
1.0
 10
187.1872101634713
 20
-124.3632323564021
 30
0.0
 10
187.0217320236005
 20
-124.3637110717875
 30
0.0
 10
186.5887908469161
 20
-124.3649635369314
 30
0.0
 10
185.7364113759928
 20
-124.3282168662354
 30
0.0
 10
184.6874519544878
 20
-124.2619257313557
 30
0.0
 10
183.5551954104697
 20
-124.1705614919131
 30
0.0
 10
182.3929204315013
 20
-124.0668914287202
 30
0.0
 10
181.2103750988312
 20
-123.9600183226711
 30
0.0
 10
180.0611208110717
 20
-123.8637592144349
 30
0.0
 10
178.9618665773212
 20
-123.7880217869636
 30
0.0
 10
177.9688168049317
 20
-123.7431711671109
 30
0.0
 10
177.0926701324891
 20
-123.7333483761927
 30
0.0
 10
176.3729723957619
 20
-123.7592259596631
 30
0.0
 10
175.8173053955132
 20
-123.8178645767121
 30
0.0
 10
175.3625289231846
 20
-123.9153759667653
 30
0.0
 10
175.2950000916844
 20
-124.0024482275542
 30
0.0
 10
175.2548236846104
 20
-124.0542520351514
 30
0.0
  0
LINE
  5
103
330
1F
100
AcDbEntity
  8
0
  6
Continuous
 62
     7
370
    25
100
AcDbLine
 10
175.2548236846
 20
-139.3676047732
 30
0.0
 11
189.2548236846
 21
-139.3676047732
 31
0.0
  0
ARC
  5
104
330
1F
100
AcDbEntity
  8
0
  6
Continuous
 62
     7
370
    25
100
AcDbCircle
 10
132.5786334514
 20
-85.1176047732
 30
0.0
 40
39.25
100
AcDbArc
 50
90.0
 51
270.0
  0
LINE
  5
105
330
1F
100
AcDbEntity
  8
0
  6
Continuous
 62
     7
370
    25
100
AcDbLine
 10
125.5786334514
 20
-139.3676047732
 30
0.0
 11
139.5786334514
 21
-139.3676047732
 31
0.0
  0
LWPOLYLINE
  5
106
330
1F
100
AcDbEntity
  8
0
  6
Continuous
 62
     1
370
    25
100
AcDbPolyline
 90
       51
 70
   128
 43
0.0
 10
144.5872554227
 20
-45.8676047732
 10
142.8445710382
 20
-45.9450556824
 10
141.1087642328
 20
-46.1771027466
 10
139.3866854429
 20
-46.5628301821
 10
137.6851309269
 20
-47.1007156989
 10
136.0108159429
 20
-47.7886365086
 10
134.3703482474
 20
-48.6238777021
 10
132.7702020168
 20
-49.6031429639
 10
131.2166922973
 20
-50.7225675815
 10
129.7159500821
 20
-51.9777336973
 10
128.2738981149
 20
-53.363687744
 10
126.8962275163
 20
-54.8749599943
 10
125.5883753224
 20
-56.5055861469
 10
124.3555030286
 20
-58.2491308655
 10
123.2024762185
 20
-60.0987131756
 10
122.1338453621
 20
-62.0470336207
 10
121.1538278573
 20
-64.0864030703
 10
120.2662913853
 20
-66.2087730647
 10
119.4747386472
 20
-68.4057675793
 10
118.78229354
 20
-70.6687160803
 10
118.1916888281
 20
-72.988687744
 10
117.7052553587
 20
-75.356526702
 10
117.3249128622
 20
-77.7628881757
 10
117.0521623769
 20
-80.1982753558
 10
116.8880803242
 20
-82.6530768817
 10
116.8333142611
 20
-85.1176047732
 10
116.8880803242
 20
-87.5821326647
 10
117.0521623769
 20
-90.0369341906
 10
117.3249128622
 20
-92.4723213707
 10
117.7052553587
 20
-94.8786828444
 10
118.1916888281
 20
-97.2465218024
 10
118.78229354
 20
-99.5664934661
 10
119.4747386472
 20
-101.8294419672
 10
120.2662913853
 20
-104.0264364817
 10
121.1538278573
 20
-106.1488064761
 10
122.1338453621
 20
-108.1881759257
 10
123.2024762185
 20
-110.1364963709
 10
124.3555030286
 20
-111.9860786809
 10
125.5883753224
 20
-113.7296233995
 10
126.8962275163
 20
-115.3602495522
 10
128.2738981149
 20
-116.8715218024
 10
129.7159500821
 20
-118.2574758492
 10
131.2166922973
 20
-119.5126419649
 10
132.7702020168
 20
-120.6320665825
 10
134.3703482474
 20
-121.6113318443
 10
136.0108159429
 20
-122.4465730378
 10
137.6851309269
 20
-123.1344938475
 10
139.3866854429
 20
-123.6723793643
 10
141.1087642328
 20
-124.0581067998
 10
142.8445710382
 20
-124.290153864
 10
144.5872554227
 20
-124.3676047732
  0
INSERT
  5
112
330
1F
100
AcDbEntity
  8
FORMAT
 62
     7
100
AcDbBlockReference
  2
SW_CENTERMARKSYMBOL_3
 10
132.5786334514
 20
-85.1176047732
 30
0.0
  0
LINE
  5
113
330
1F
100
AcDbEntity
  8
0
  6
Continuous
 62
     7
370
    25
100
AcDbLine
 10
271.1851028997
 20
-86.1074554748
 30
0.0
 11
271.1851028997
 21
-102.3502319702
 31
0.0
  0
LINE
  5
114
330
1F
100
AcDbEntity
  8
0
  6
Continuous
 62
     7
370
    25
100
AcDbLine
 10
271.1851028997
 20
-115.0287151371
 30
0.0
 11
271.1851028997
 21
-137.7699811276
 31
0.0
  0
LINE
  5
115
330
1F
100
AcDbEntity
  8
0
  6
Continuous
 62
     7
370
    25
100
AcDbLine
 10
349.6851028997
 20
-137.7699811276
 30
0.0
 11
349.6851028997
 21
-86.1074554748
 31
0.0
  0
LINE
  5
116
330
1F
100
AcDbEntity
  8
0
  6
Continuous
 62
     7
370
    25
100
AcDbLine
 10
316.5699768036
 20
16.8855710398
 30
0.0
 11
315.0690560029
 21
14.2858999625
 31
0.0
  0
LINE
  5
117
330
1F
100
AcDbEntity
  8
0
  6
Continuous
 62
     7
370
    25
100
AcDbLine
 10
308.0690559797
 20
2.1615443051
 30
0.0
 11
284.9349838548
 21
-37.9078438838
 31
0.0
  0
LINE
  5
118
330
1F
100
AcDbEntity
  8
0
  6
Continuous
 62
     7
370
    25
100
AcDbLine
 10
352.917978002
 20
-77.1578439702
 30
0.0
 11
384.5529709508
 21
-22.3644290466
 31
0.0
  0
LINE
  5
119
330
1F
100
AcDbEntity
  8
0
  6
Continuous
 62
     7
370
    25
100
AcDbLine
 10
286.4024795392
 20
-107.6481500258
 30
0.0
 11
275.5742755846
 21
-101.3971609389
 31
0.0
  0
LINE
  5
11A
330
1F
100
AcDbEntity
  8
0
  6
Continuous
 62
     7
370
    25
100
AcDbLine
 10
268.5748444561
 20
-113.5218450122
 30
0.0
 11
279.4028846513
 21
-119.7727395629
 31
0.0
  0
SPLINE
  5
11B
330
1F
100
AcDbEntity
  8
0
  6
Continuous
 62
     7
370
    25
100
AcDbSpline
210
0.0
220
0.0
230
1.0
 70
     8
 71
     3
 72
    21
 73
    17
 74
     0
 42
0.00000001
 43
0.00000001
 40
0.0
 40
0.0
 40
0.0
 40
0.0
 40
0.0316657533767383
 40
0.1098529072188053
 40
0.1854135430569862
 40
0.2594317533120598
 40
0.3324990422589615
 40
0.4051275897597153
 40
0.4777367873277988
 40
0.550627607465782
 40
0.623960451323971
 40
0.6978910273596263
 40
0.7724834534670066
 40
0.8477215877150535
 40
0.9235230282342274
 40
1.0
 40
1.0
 40
1.0
 40
1.0
 10
349.6851705570486
 20
-86.10487081466519
 30
0.0
 10
349.6851594504179
 20
-86.10478356074677
 30
0.0
 10
349.6851209199697
 20
-86.10448086475559
 30
0.0
 10
349.6885065218275
 20
-86.00332147332296
 30
0.0
 10
349.7092457884003
 20
-85.7611879317604
 30
0.0
 10
349.7561649385452
 20
-85.3952971920538
 30
0.0
 10
349.8377952086591
 20
-84.91629232082684
 30
0.0
 10
349.9616480712926
 20
-84.33057626646473
 30
0.0
 10
350.1340793293911
 20
-83.64708897745729
 30
0.0
 10
350.3600949605313
 20
-82.8759916970694
 30
0.0
 10
350.643138961959
 20
-82.02906738604213
 30
0.0
 10
350.9850430769743
 20
-81.11951824316208
 30
0.0
 10
351.3856130395753
 20
-80.1614597606286
 30
0.0
 10
351.8437466966741
 20
-79.17088032892907
 30
0.0
 10
352.3526560160058
 20
-78.16124796504081
 30
0.0
 10
352.7289808610277
 20
-77.49329967672207
 30
0.0
 10
352.9179780019595
 20
-77.15784397016296
 30
0.0
  0
SPLINE
  5
11C
330
1F
100
AcDbEntity
  8
0
  6
Continuous
 62
     7
370
    25
100
AcDbSpline
210
0.0
220
0.0
230
1.0
 70
     8
 71
     3
 72
    23
 73
    19
 74
     0
 42
0.00000001
 43
0.00000001
 40
0.0
 40
0.0
 40
0.0
 40
0.0
 40
0.0376368035601007
 40
0.1026366718895855
 40
0.1677185462647059
 40
0.2329252711898914
 40
0.2983022819521249
 40
0.3638921206638125
 40
0.4297325013511233
 40
0.4958538996952516
 40
0.5622765722803821
 40
0.6290069908077162
 40
0.6960338254431346
 40
0.7633238477113412
 40
0.8308184380119151
 40
0.8984188764129432
 40
0.9659833262691381
 40
1.0
 40
1.0
 40
1.0
 40
1.0
 10
284.9349838547616
 20
-37.90784388376728
 30
0.0
 10
284.6125226795988
 20
-38.47327811597926
 30
0.0
 10
283.7331615569292
 20
-40.01523392192346
 30
0.0
 10
282.3700370524695
 20
-42.57521670308127
 30
0.0
 10
280.8721204897262
 20
-45.59694099853336
 30
0.0
 10
279.4697485123594
 20
-48.66419907694883
 30
0.0
 10
278.1637562266686
 20
-51.77338442921526
 30
0.0
 10
276.9572985023861
 20
-54.92217368893885
 30
0.0
 10
275.8533027337532
 20
-58.1078094507334
 30
0.0
 10
274.8551933156379
 20
-61.32739873931129
 30
0.0
 10
273.9667057982535
 20
-64.57764894905615
 30
0.0
 10
273.1919411413551
 20
-67.85471393210874
 30
0.0
 10
272.5352292196115
 20
-71.15398781590996
 30
0.0
 10
272.0013005606684
 20
-74.46986741560686
 30
0.0
 10
271.5941438986342
 20
-77.79546951437614
 30
0.0
 10
271.3205327164797
 20
-81.12183958136168
 30
0.0
 10
271.1994205108454
 20
-83.89324099547606
 30
0.0
 10
271.1886946800813
 20
-85.55198766480953
 30
0.0
 10
271.1851028997121
 20
-86.10745547477639
 30
0.0
  0
LINE
  5
11D
330
1F
100
AcDbEntity
  8
0
  6
Continuous
 62
     7
370
    25
100
AcDbLine
 10
321.3103360033
 20
10.6828857105
 30
0.0
 11
310.700646562
 21
16.807729054
 31
0.0
  0
LINE
  5
11E
330
1F
100
AcDbEntity
  8
0
  6
Continuous
 62
     7
370
    25
100
AcDbLine
 10
303.7012154336
 20
4.6830449807
 30
0.0
 11
314.3106752148
 21
-1.4416657828
 31
0.0
  0
LWPOLYLINE
  5
11F
330
1F
100
AcDbEntity
  8
0
  6
Continuous
 62
     7
370
    25
100
AcDbPolyline
 90
      101
 70
   128
 43
0.0
 10
282.6811617381
 20
-121.7479719331
 10
284.4786121858
 20
-120.7735574271
 10
286.3785010438
 20
-119.8662200406
 10
288.373330319
 20
-119.0295406196
 10
290.4552273315
 20
-118.2668211556
 10
292.6159757849
 20
-117.5810717539
 10
294.8470481923
 20
-116.974998754
 10
297.1396395301
 20
-116.4509940492
 10
299.4847019877
 20
-116.0111256468
 10
301.8729806749
 20
-115.6571295062
 10
304.2950501469
 20
-115.3904026886
 10
306.741351602
 20
-115.2119978428
 10
309.2022306059
 20
-115.1226190513
 10
311.6679751935
 20
-115.1226190513
 10
314.1288541975
 20
-115.2119978428
 10
316.5751556525
 20
-115.3904026886
 10
318.9972251245
 20
-115.6571295062
 10
321.3855038118
 20
-116.0111256468
 10
323.7305662693
 20
-116.4509940492
 10
326.0231576071
 20
-116.974998754
 10
328.2542300145
 20
-117.5810717539
 10
330.4149784679
 20
-118.2668211556
 10
332.4968754804
 20
-119.0295406196
 10
334.4917047556
 20
-119.8662200406
 10
336.3915936137
 20
-120.7735574271
 10
338.1890440613
 20
-121.7479719331
 10
339.8769623827
 20
-122.7856179896
 10
341.4486871355
 20
-123.8824004817
 10
342.89801544
 20
-125.0339909099
 10
344.2192274596
 20
-126.2358444731
 10
345.4071089741
 20
-127.4832180041
 10
346.4569719578
 20
-128.7711886897
 10
347.3646730812
 20
-130.0946734978
 10
348.1266300625
 20
-131.4484492387
 10
348.7398358058
 20
-132.8271731778
 10
349.2018702681
 20
-134.2254041218
 10
349.5109100104
 20
-135.6376238919
 10
349.6657353941
 20
-137.0582591018
 10
349.6657353941
 20
-138.4817031534
 10
349.5109100104
 20
-139.9023383633
 10
349.2018702681
 20
-141.3145581334
 10
348.7398358058
 20
-142.7127890774
 10
348.1266300625
 20
-144.0915130165
 10
347.3646730812
 20
-145.4452887574
 10
346.4569719578
 20
-146.7687735655
 10
345.4071089741
 20
-148.056744251
 10
344.2192274596
 20
-149.3041177821
 10
342.89801544
 20
-150.5059713453
 10
341.4486871355
 20
-151.6575617735
 10
339.8769623827
 20
-152.7543442656
 10
338.1890440613
 20
-153.7919903221
 10
336.3915936137
 20
-154.7664048281
 10
334.4917047556
 20
-155.6737422146
 10
332.4968754804
 20
-156.5104216356
 10
330.4149784679
 20
-157.2731410996
 10
328.2542300145
 20
-157.9588905013
 10
326.0231576071
 20
-158.5649635012
 10
323.7305662693
 20
-159.0889682059
 10
321.3855038118
 20
-159.5288366084
 10
318.9972251245
 20
-159.882832749
 10
316.5751556525
 20
-160.1495595666
 10
314.1288541975
 20
-160.3279644124
 10
311.6679751935
 20
-160.4173432039
 10
309.2022306059
 20
-160.4173432039
 10
306.741351602
 20
-160.3279644124
 10
304.2950501469
 20
-160.1495595666
 10
301.8729806749
 20
-159.882832749
 10
299.4847019877
 20
-159.5288366084
 10
297.1396395301
 20
-159.0889682059
 10
294.8470481923
 20
-158.5649635012
 10
292.6159757849
 20
-157.9588905013
 10
290.4552273315
 20
-157.2731410996
 10
288.373330319
 20
-156.5104216356
 10
286.3785010438
 20
-155.6737422146
 10
284.4786121858
 20
-154.7664048281
 10
282.6811617381
 20
-153.7919903221
 10
280.9932434167
 20
-152.7543442656
 10
279.421518664
 20
-151.6575617735
 10
277.9721903594
 20
-150.5059713453
 10
276.6509783398
 20
-149.3041177821
 10
275.4630968253
 20
-148.056744251
 10
274.4132338416
 20
-146.7687735655
 10
273.5055327183
 20
-145.4452887574
 10
272.7435757369
 20
-144.0915130165
 10
272.1303699936
 20
-142.7127890774
 10
271.6683355314
 20
-141.3145581334
 10
271.359295789
 20
-139.9023383633
 10
271.2044704054
 20
-138.4817031534
 10
271.2044704054
 20
-137.0582591018
 10
271.359295789
 20
-135.6376238919
 10
271.6683355314
 20
-134.2254041218
 10
272.1303699936
 20
-132.8271731778
 10
272.7435757369
 20
-131.4484492387
 10
273.5055327183
 20
-130.0946734978
 10
274.4132338416
 20
-128.7711886897
 10
275.4630968253
 20
-127.4832180041
 10
276.6509783398
 20
-126.2358444731
 10
277.9721903594
 20
-125.0339909099
 10
279.421518664
 20
-123.8824004817
 10
280.9932434167
 20
-122.7856179896
 10
282.6811617381
 20
-121.7479719331
  0
SPLINE
  5
120
330
1F
100
AcDbEntity
  8
0
  6
Continuous
 62
     7
370
    25
100
AcDbSpline
210
0.0
220
0.0
230
1.0
 70
     8
 71
     3
 72
    27
 73
    23
 74
     0
 42
0.00000001
 43
0.00000001
 40
0.0
 40
0.0
 40
0.0
 40
0.0
 40
0.0159685462130364
 40
0.0695891887387773
 40
0.1235798364529699
 40
0.1775665035482639
 40
0.2309824579940562
 40
0.2843975042877731
 40
0.3372049965421325
 40
0.3900157451142272
 40
0.4431000112362926
 40
0.4961867400754945
 40
0.5500130119009222
 40
0.6038370023043188
 40
0.6577377569054974
 40
0.7116347088099192
 40
0.7647933527755564
 40
0.8179527400273446
 40
0.8707190815831596
 40
0.9234891872426889
 40
0.9768149104408627
 40
1.0
 40
1.0
 40
1.0
 40
1.0
 10
279.4138045969495
 20
-119.7546389773044
 30
0.0
 10
279.4618190178418
 20
-119.789115965153
 30
0.0
 10
279.6710606452937
 20
-119.939362930815
 30
0.0
 10
280.1412300697884
 20
-120.0343477078935
 30
0.0
 10
280.8180641337475
 20
-120.0269941440329
 30
0.0
 10
281.5737372925428
 20
-119.8374552211428
 30
0.0
 10
282.381930949562
 20
-119.4841586478699
 30
0.0
 10
283.2171247030053
 20
-118.9838796563899
 30
0.0
 10
284.0583850881198
 20
-118.3472289200814
 30
0.0
 10
284.880795400688
 20
-117.5962246234119
 30
0.0
 10
285.6602429725486
 20
-116.7427178385109
 30
0.0
 10
286.3752664294074
 20
-115.8056998813321
 30
0.0
 10
286.9948994288444
 20
-114.8046695137037
 30
0.0
 10
287.4985958443814
 20
-113.7640887200772
 30
0.0
 10
287.8571879754964
 20
-112.7129929516845
 30
0.0
 10
288.0609148269547
 20
-111.6838503713725
 30
0.0
 10
288.0955427828394
 20
-110.7059798444841
 30
0.0
 10
287.9698379190874
 20
-109.8075212988482
 30
0.0
 10
287.6852753022937
 20
-109.0095786330548
 30
0.0
 10
287.2535582832548
 20
-108.340967522396
 30
0.0
 10
286.812864021977
 20
-107.886198026533
 30
0.0
 10
286.4886542565557
 20
-107.7197801095681
 30
0.0
 10
286.3904088951963
 20
-107.6693504491055
 30
0.0
  0
LWPOLYLINE
  5
121
330
1F
100
AcDbEntity
  8
0
  6
Continuous
 62
     7
370
    25
100
AcDbPolyline
 90
       90
 70
   128
 43
0.0
 10
288.1612392923
 20
-124.9115533664
 10
286.6455477737
 20
-125.8506034957
 10
285.248374622
 20
-126.8490353649
 10
283.9766804836
 20
-127.9018748365
 10
282.8368008749
 20
-129.0038767172
 10
281.8344146186
 20
-130.1495508892
 10
280.9745155526
 20
-131.3331896613
 10
280.2613876509
 20
-132.5488962048
 10
279.6985836808
 20
-133.7906139306
 10
279.2889075033
 20
-135.0521566637
 10
279.0344001046
 20
-136.3272394616
 10
278.9363294278
 20
-137.6095099258
 10
278.9951840559
 20
-138.8925798495
 10
279.2106707782
 20
-140.1700570429
 10
279.5817160508
 20
-141.4355771787
 10
280.1064713446
 20
-142.6828354995
 10
280.7823223552
 20
-143.9056182268
 10
281.605902027
 20
-145.0978335188
 10
282.5731073274
 20
-146.2535418188
 10
283.6791196881
 20
-147.3669854461
 10
284.9184290114
 20
-148.4326172807
 10
286.2848611205
 20
-149.4451283983
 10
287.7716085193
 20
-150.3994745194
 10
289.3712643071
 20
-151.2909011398
 10
291.0758590793
 20
-152.1149672168
 10
292.8769006303
 20
-152.8675672947
 10
294.7654162619
 20
-153.5449519577
 10
296.731997484
 20
-154.1437465095
 10
298.7668468881
 20
-154.6609677859
 10
300.8598269567
 20
-155.0940390163
 10
303.0005105684
 20
-155.4408026618
 10
305.1782329451
 20
-155.6995311633
 10
307.3821447835
 20
-155.8689355484
 10
309.6012663056
 20
-155.9481718529
 10
311.8245419598
 20
-155.9368453257
 10
314.0408954984
 20
-155.8350123948
 10
316.2392851597
 20
-155.6431803869
 10
318.4087586769
 20
-155.3623049993
 10
320.5385078421
 20
-154.9937855391
 10
322.6179223521
 20
-154.5394579517
 10
324.6366426684
 20
-154.0015856742
 10
326.584611628
 20
-153.3828483595
 10
328.4521245474
 20
-152.6863285255
 10
330.2298775712
 20
-151.9154961991
 10
331.9090140233
 20
-151.0741916281
 10
333.4811685304
 20
-150.1666061497
 10
334.9385086978
 20
-149.1972613089
 10
336.27377413
 20
-148.1709863332
 10
337.4803126019
 20
-147.0928940726
 10
338.5521131995
 20
-145.9683555288
 10
339.4838362661
 20
-144.802973096
 10
340.2708400042
 20
-143.602552651
 10
340.9092036009
 20
-142.3730746281
 10
341.3957467608
 20
-141.120664225
 10
341.7280455503
 20
-139.8515608871
 10
341.9044444737
 20
-138.5720872237
 10
341.9240647202
 20
-137.2886175079
 10
341.786808543
 20
-136.0075459216
 10
341.4933597452
 20
-134.7352546988
 10
341.0451802741
 20
-133.4780823304
 10
340.4445029373
 20
-132.2422919859
 10
339.694320279
 20
-131.0340403106
 10
338.7983696715
 20
-129.8593467537
 10
337.7611146957
 20
-128.7240635793
 10
336.5877229036
 20
-127.6338467112
 10
335.2840400742
 20
-126.5941275548
 10
333.8565610897
 20
-125.6100859387
 10
332.3123975787
 20
-124.6866243089
 10
330.659242486
 20
-123.8283433046
 10
328.9053317472
 20
-123.0395188386
 10
327.0594032574
 20
-122.3240807948
 10
325.1306533394
 20
-121.6855934495
 10
323.1286909284
 20
-121.1272377145
 10
321.0634897003
 20
-120.6517952901
 10
318.9453383837
 20
-120.2616348064
 10
316.7847895021
 20
-119.9587000235
 10
314.5926068012
 20
-119.744500147
 10
312.379711625
 20
-119.6201023101
 10
310.157128506
 20
-119.5861262565
 10
307.9359302414
 20
-119.6427412532
 10
305.7271827293
 20
-119.7896652471
 10
303.5418898386
 20
-120.0261662702
 10
301.3909385887
 20
-120.3510660865
 10
299.2850449104
 20
-120.7627460613
 10
297.2347002602
 20
-121.2591552257
 10
295.2501193519
 20
-121.8378204942
 10
293.3411892679
 20
-122.4958589856
 10
291.5174202017
 20
-123.2299923852
 10
289.7878980791
 20
-124.0365632773
 10
288.1612392923
 20
-124.9115533664
  0
LWPOLYLINE
  5
122
330
1F
100
AcDbEntity
  8
0
  6
Continuous
 62
     7
370
    25
100
AcDbPolyline
 90
      101
 70
   128
 43
0.0
 10
322.8075327156
 20
13.2825801911
 10
324.0945627244
 20
12.5393623276
 10
325.48604554
 20
11.7358460549
 10
326.9764896154
 20
10.8752024847
 10
328.5600128487
 20
9.9608281839
 10
330.2303657972
 20
8.9963317702
 10
331.9809563408
 20
7.9855196703
 10
333.8048756986
 20
6.9323810977
 10
335.694925694
 20
5.8410723093
 10
337.6436471632
 20
4.7159002023
 10
339.6433493928
 20
3.5613053169
 10
341.6861404718
 20
2.3818443117
 10
343.7639584369
 20
1.1821719804
 10
345.86860309
 20
-0.0329771184
 10
347.9917683602
 20
-1.2588073463
 10
350.125075084
 20
-2.4904809115
 10
352.2601040745
 20
-3.723136961
 10
354.3884293476
 20
-4.9519107646
 10
356.5016513759
 20
-6.1719529136
 10
358.5914302374
 20
-7.3784484588
 10
360.6495185296
 20
-8.5666359136
 10
362.6677939185
 20
-9.7318260449
 10
364.6382911929
 20
-10.8694203796
 10
366.5532337005
 20
-11.9749293526
 10
368.405064038
 20
-13.043990025
 10
370.1864738772
 20
-14.0723833028
 10
371.8904328071
 20
-15.0560505875
 10
373.5102160804
 20
-15.9911097937
 10
375.0394311525
 20
-16.87387067
 10
376.4720429102
 20
-17.7008493624
 10
377.8023974893
 20
-18.4687821639
 10
379.0252445881
 20
-19.1746383945
 10
380.1357581877
 20
-19.8156323622
 10
381.1295555984
 20
-20.3892343565
 10
382.0027147558
 20
-20.8931806326
 10
382.7517896995
 20
-21.3254823447
 10
383.3738241731
 20
-21.6844333954
 10
383.8663632906
 20
-21.9686171689
 10
384.2274632251
 20
-22.1769121217
 10
384.4556988802
 20
-22.3084962088
 10
384.550169514
 20
-22.3628501279
 10
384.5105022941
 20
-22.3397593689
 10
384.3368537688
 20
-22.2393150604
 10
384.0299092497
 20
-22.0619136104
 10
383.5908801063
 20
-21.8082551412
 10
383.0214989863
 20
-21.479340727
 10
382.3240129768
 20
-21.0764684426
 10
381.5011747364
 20
-20.601228241
 10
380.5562316317
 20
-20.055495678
 10
379.4929129214
 20
-19.4414245109
 10
378.3154150387
 20
-18.7614381979
 10
377.0283850299
 20
-18.0182203344
 10
375.6369022143
 20
-17.2147040617
 10
374.1464581389
 20
-16.3540604915
 10
372.5629349056
 20
-15.4396861907
 10
370.8925819571
 20
-14.475189777
 10
369.1419914135
 20
-13.4643776771
 10
367.3180720557
 20
-12.4112391045
 10
365.4280220603
 20
-11.3199303161
 10
363.4793005911
 20
-10.1947582091
 10
361.4795983615
 20
-9.0401633237
 10
359.4368072825
 20
-7.8607023185
 10
357.3589893174
 20
-6.6610299872
 10
355.2543446643
 20
-5.4458808884
 10
353.1311793941
 20
-4.2200506605
 10
350.9978726703
 20
-2.9883770953
 10
348.8628436798
 20
-1.7557210458
 10
346.7345184067
 20
-0.5269472421
 10
344.6212963784
 20
0.6930949068
 10
342.5315175169
 20
1.899590452
 10
340.4734292247
 20
3.0877779068
 10
338.4551538359
 20
4.2529680381
 10
336.4846565614
 20
5.3905623729
 10
334.5697140538
 20
6.4960713459
 10
332.7178837163
 20
7.5651320183
 10
330.9364738772
 20
8.593525296
 10
329.2325149472
 20
9.5771925807
 10
327.6127316739
 20
10.5122517869
 10
326.0835166018
 20
11.3950126632
 10
324.6509048442
 20
12.2219913556
 10
323.3205502651
 20
12.9899241571
 10
322.0977031663
 20
13.6957803877
 10
320.9871895666
 20
14.3367743554
 10
319.9933921559
 20
14.9103763498
 10
319.1202329985
 20
15.4143226259
 10
318.3711580548
 20
15.846624338
 10
317.7491235812
 20
16.2055753887
 10
317.2565844637
 20
16.4897591622
 10
316.8954845292
 20
16.698054115
 10
316.6672488741
 20
16.829638202
 10
316.5727782403
 20
16.8839921211
 10
316.6124454602
 20
16.8609013621
 10
316.7860939855
 20
16.7604570537
 10
317.0930385047
 20
16.5830556036
 10
317.532067648
 20
16.3293971344
 10
318.101448768
 20
16.0004827202
 10
318.7989347775
 20
15.5976104358
 10
319.6217730179
 20
15.1223702342
 10
320.5667161226
 20
14.5766376713
 10
321.6300348329
 20
13.9625665041
 10
322.8075327156
 20
13.2825801911
  0
SPLINE
  5
123
330
1F
100
AcDbEntity
  8
0
  6
Continuous
 62
     7
370
    25
100
AcDbSpline
210
0.0
220
0.0
230
1.0
 70
     8
 71
     3
 72
    27
 73
    23
 74
     0
 42
0.00000001
 43
0.00000001
 40
0.0
 40
0.0
 40
0.0
 40
0.0
 40
0.0178105215021837
 40
0.0709517244100945
 40
0.1237458155820428
 40
0.1765435548891035
 40
0.2298896522542996
 40
0.2832367463898769
 40
0.3372080063715045
 40
0.3911756888382319
 40
0.4448672622074953
 40
0.4985561916087671
 40
0.5514770036245032
 40
0.6044001784074127
 40
0.6572710986158067
 40
0.7101454401510178
 40
0.7637523952176737
 40
0.8173586306436829
 40
0.8713520431699494
 40
0.9253414780494387
 40
0.9787744521781696
 40
1.0
 40
1.0
 40
1.0
 40
1.0
 10
314.3221166995293
 20
-1.422539516249086
 30
0.0
 10
314.383774918809
 20
-1.464941302544251
 30
0.0
 10
314.6294025935191
 20
-1.633857179338769
 30
0.0
 10
315.179130731838
 20
-1.770522535871164
 30
0.0
 10
315.9494791050579
 20
-1.81838493617488
 30
0.0
 10
316.7969759222917
 20
-1.69272071055894
 30
0.0
 10
317.6878349316533
 20
-1.399900871190532
 30
0.0
 10
318.5973516334979
 20
-0.943857852944166
 30
0.0
 10
319.4905560741416
 20
-0.3266870954106577
 30
0.0
 10
320.3364305496575
 20
0.4331184892292922
 30
0.0
 10
321.0991538360861
 20
1.320006750203731
 30
0.0
 10
321.7551597121849
 20
2.300039215956687
 30
0.0
 10
322.281341614464
 20
3.349534571780069
 30
0.0
 10
322.6722622060833
 20
4.433567122827623
 30
0.0
 10
322.9165959482584
 20
5.526338381738119
 30
0.0
 10
323.0198252790295
 20
6.600047903389209
 30
0.0
 10
322.9771590871609
 20
7.621249936324584
 30
0.0
 10
322.798621092316
 20
8.561430012557949
 30
0.0
 10
322.4905078059443
 20
9.385158946427232
 30
0.0
 10
322.0653984371213
 20
10.05302466865805
 30
0.0
 10
321.6602376294213
 20
10.48326788050062
 30
0.0
 10
321.378553159341
 20
10.62233096666378
 30
0.0
 10
321.2984697738929
 20
10.66186684426344
 30
0.0
  0
LWPOLYLINE
  5
124
330
1F
100
AcDbEntity
  8
0
  6
Continuous
 62
     7
370
    25
100
AcDbPolyline
 90
       43
 70
   128
 43
0.0
 10
267.124812552
 20
-110.3169313669
 10
267.1800971417
 20
-109.4331226015
 10
267.3447159441
 20
-108.5052264349
 10
267.6149916474
 20
-107.5539705342
 10
267.984886739
 20
-106.6006043844
 10
268.4461383736
 20
-105.6664246098
 10
268.9884429521
 20
-104.7722992429
 10
269.5996862862
 20
-103.938201567
 10
270.2662142099
 20
-103.1827639457
 10
270.9731375908
 20
-102.5228616073
 10
271.7046649288
 20
-101.9732356795
 10
272.4444551119
 20
-101.5461638973
 10
273.1759824498
 20
-101.2511863386
 10
273.8829058308
 20
-101.0948923146
 10
274.5494337545
 20
-101.0807731756
 10
275.1606770886
 20
-101.2091443198
 10
275.7029816671
 20
-101.477138148
 10
276.1642333017
 20
-101.8787681208
 10
276.5341283933
 20
-102.4050624884
 10
276.8044040966
 20
-103.0442647043
 10
276.969022899
 20
-103.7820960472
 10
277.0243074886
 20
-104.6020745842
 10
276.969022899
 20
-105.4858833496
 10
276.8044040966
 20
-106.4137795162
 10
276.5341283933
 20
-107.3650354169
 10
276.1642333017
 20
-108.3184015667
 10
275.7029816671
 20
-109.2525813413
 10
275.1606770886
 20
-110.1467067081
 10
274.5494337545
 20
-110.9808043841
 10
273.8829058308
 20
-111.7362420054
 10
273.1759824498
 20
-112.3961443438
 10
272.4444551119
 20
-112.9457702716
 10
271.7046649288
 20
-113.3728420538
 10
270.9731375908
 20
-113.6678196125
 10
270.2662142099
 20
-113.8241136365
 10
269.5996862862
 20
-113.8382327755
 10
268.9884429521
 20
-113.7098616313
 10
268.4461383736
 20
-113.4418678031
 10
267.984886739
 20
-113.0402378303
 10
267.6149916474
 20
-112.5139434627
 10
267.3447159441
 20
-111.8747412468
 10
267.1800971417
 20
-111.1369099039
 10
267.124812552
 20
-110.3169313669
  0
LWPOLYLINE
  5
125
330
1F
100
AcDbEntity
  8
0
  6
Continuous
 62
     7
370
    25
100
AcDbPolyline
 90
       36
 70
   128
 43
0.0
 10
268.5390261144
 20
-109.5005232551
 10
268.5958435988
 20
-108.7387282603
 10
268.7644698913
 20
-107.9358179123
 10
269.0394852041
 20
-107.1175984103
 10
269.4120503187
 20
-106.3103680024
 10
269.8701906859
 20
-105.540071738
 10
270.3991812972
 20
-104.8314675729
 10
270.9820199592
 20
-104.207330628
 10
271.5999737577
 20
-103.6877211782
 10
272.2331811492
 20
-103.2893398989
 10
272.8612903271
 20
-103.024991092
 10
273.4641133456
 20
-102.9031711458
 10
274.0222749769
 20
-102.9277954536
 10
274.517835447
 20
-103.0980725698
 10
274.9348670344
 20
-103.4085296479
 10
275.259966001
 20
-103.8491883419
 10
275.4826833984
 20
-104.4058855188
 10
275.5958609062
 20
-105.0607284732
 10
275.5958609062
 20
-105.7926700139
 10
275.4826833984
 20
-106.5781849375
 10
275.259966001
 20
-107.3920261479
 10
274.9348670344
 20
-108.2080361191
 10
274.517835447
 20
-108.9999876192
 10
274.0222749769
 20
-109.7424266753
 10
273.4641133456
 20
-110.4114906853
 10
272.8612903271
 20
-110.9856753814
 10
272.2331811492
 20
-111.4465259951
 10
271.5999737577
 20
-111.7792304083
 10
270.9820199592
 20
-111.9730952276
 10
270.3991812972
 20
-112.0218894781
 10
269.8701906859
 20
-111.9240448725
 10
269.4120503187
 20
-111.6827062169
 10
269.0394852041
 20
-111.3056303342
 10
268.7644698913
 20
-110.8049367536
 10
268.5958435988
 20
-110.1967181788
 10
268.5390261144
 20
-109.5005232551
  0
LWPOLYLINE
  5
126
330
1F
100
AcDbEntity
  8
0
  6
Continuous
 62
     7
370
    25
100
AcDbPolyline
 90
       90
 70
   128
 43
0.0
 10
328.2876102698
 20
10.1189987578
 10
327.2321052989
 20
10.7285373026
 10
326.2928260688
 20
11.2709791167
 10
325.4744520213
 20
11.7436217823
 10
324.7810602548
 20
12.1441106174
 10
324.2161052121
 20
12.4704504067
 10
323.782401471
 20
12.721015342
 10
323.4821097215
 20
12.8945571211
 10
323.3167260021
 20
12.9902111679
 10
323.2870742462
 20
13.0075009385
 10
323.3933021773
 20
12.9463402962
 10
323.6348805732
 20
12.8070339403
 10
324.0106059025
 20
12.5902758881
 10
324.5186063205
 20
12.2971460171
 10
325.1563509947
 20
11.9291046858
 10
325.9206627131
 20
11.4879854575
 10
326.8077337133
 20
10.975985966
 10
327.8131446522
 20
10.395656967
 10
328.9318866229
 20
9.7498896305
 10
330.1583861094
 20
9.0419011367
 10
331.4865327528
 20
8.2752186488
 10
332.9097097934
 20
7.4536617404
 10
334.4208270348
 20
6.5813233666
 10
336.0123561668
 20
5.6625494733
 10
337.6763682715
 20
4.7019173459
 10
339.4045733241
 20
3.7042128053
 10
341.188361494
 20
2.6744063653
 10
343.0188460384
 20
1.6176284699
 10
344.8869075752
 20
0.5391439333
 10
346.783239516
 20
-0.5556742888
 10
348.6983944302
 20
-1.661371867
 10
350.6228311126
 20
-2.7724402716
 10
352.5469621163
 20
-3.8833442158
 10
354.4612015174
 20
-4.9885492319
 10
356.3560126717
 20
-6.0825492442
 10
358.2219557251
 20
-7.1598939996
 10
360.0497346433
 20
-8.2152162207
 10
361.8302435236
 20
-9.2432583454
 10
363.5546119604
 20
-10.2388987194
 10
365.2142492368
 20
-11.1971771125
 10
366.8008871234
 20
-12.11331943
 10
368.3066210701
 20
-12.9827614969
 10
369.7239495861
 20
-13.8011717966
 10
371.0458116121
 20
-14.5644730501
 10
372.2656216978
 20
-15.268862529
 10
373.3773028108
 20
-15.9108310003
 10
374.3753166118
 20
-16.4871802095
 10
375.2546910461
 20
-16.9950388136
 10
376.0110451146
 20
-17.4318766867
 10
376.6406106994
 20
-17.7955175245
 10
377.1402513363
 20
-18.0841496867
 10
377.5074778408
 20
-18.2963352223
 10
377.7404607091
 20
-18.4310170336
 10
377.8380392321
 20
-18.4875241427
 10
377.7997272785
 20
-18.465575034
 10
377.6257157167
 20
-18.3652790567
 10
377.3168714633
 20
-18.1871358805
 10
376.874733165
 20
-17.9320330057
 10
376.3015035326
 20
-17.601241342
 10
375.6000383672
 20
-17.1964088768
 10
374.7738323329
 20
-16.719552465
 10
373.8270015468
 20
-16.1730477814
 10
372.764263072
 20
-15.5596174847
 10
371.5909114184
 20
-14.882317654
 10
370.3127921647
 20
-14.1445225627
 10
368.9362728369
 20
-13.3499078691
 10
367.4682111849
 20
-12.5024323034
 10
365.9159210181
 20
-11.6063179465
 10
364.2871357679
 20
-10.6660291948
 10
362.5899699607
 20
-9.6862505197
 10
360.832878791
 20
-8.6718631292
 10
359.0246159987
 20
-7.6279206503
 10
357.1741902581
 20
-6.559623952
 10
355.2908202971
 20
-5.4722952345
 10
353.3838889701
 20
-4.371351515
 10
351.4628965131
 20
-3.2622776396
 10
349.5374132138
 20
-2.1505989586
 10
347.6170317333
 20
-1.0418537993
 10
345.7113193155
 20
0.0584341258
 10
343.8297701236
 20
1.1447832375
 10
341.9817579413
 20
2.2117813992
 10
340.1764894722
 20
3.2541128797
 10
338.422958473
 20
4.266584836
 10
336.729900947
 20
5.2441531838
 10
335.1057516215
 20
6.1819477268
 10
333.5586019269
 20
7.0752964196
 10
332.0961596851
 20
7.919748644
 10
330.7257107098
 20
8.7110973816
 10
329.4540825087
 20
9.4454001727
 10
328.2876102698
 20
10.1189987578
  0
LWPOLYLINE
  5
127
330
1F
100
AcDbEntity
  8
0
  6
Continuous
 62
     7
370
    25
100
AcDbPolyline
 90
       43
 70
   128
 43
0.0
 10
302.2511835295
 20
7.887958626
 10
302.3064681191
 20
8.7717673915
 10
302.4710869216
 20
9.699663558
 10
302.7413626249
 20
10.6509194587
 10
303.1112577164
 20
11.6042856085
 10
303.5725093511
 20
12.5384653831
 10
304.1148139295
 20
13.43259075
 10
304.7260572636
 20
14.2666884259
 10
305.3925851874
 20
15.0221260472
 10
306.0995085683
 20
15.6820283856
 10
306.8310359062
 20
16.2316543134
 10
307.5708260893
 20
16.6587260956
 10
308.3023534273
 20
16.9537036543
 10
309.0092768082
 20
17.1099976783
 10
309.6758047319
 20
17.1241168173
 10
310.287048066
 20
16.9957456731
 10
310.8293526445
 20
16.727751845
 10
311.2906042792
 20
16.3261218721
 10
311.6604993707
 20
15.7998275045
 10
311.930775074
 20
15.1606252886
 10
312.0953938765
 20
14.4227939457
 10
312.1506784661
 20
13.6028154088
 10
312.0953938765
 20
12.7190066433
 10
311.930775074
 20
11.7911104767
 10
311.6604993707
 20
10.8398545761
 10
311.2906042792
 20
9.8864884262
 10
310.8293526445
 20
8.9523086516
 10
310.287048066
 20
8.0581832848
 10
309.6758047319
 20
7.2240856088
 10
309.0092768082
 20
6.4686479876
 10
308.3023534273
 20
5.8087456491
 10
307.5708260893
 20
5.2591197213
 10
306.8310359062
 20
4.8320479391
 10
306.0995085683
 20
4.5370703804
 10
305.3925851874
 20
4.3807763565
 10
304.7260572636
 20
4.3666572175
 10
304.1148139295
 20
4.4950283616
 10
303.5725093511
 20
4.7630221898
 10
303.1112577164
 20
5.1646521627
 10
302.7413626249
 20
5.6909465303
 10
302.4710869216
 20
6.3301487462
 10
302.3064681191
 20
7.0679800891
 10
302.2511835295
 20
7.887958626
  0
LWPOLYLINE
  5
128
330
1F
100
AcDbEntity
  8
0
  6
Continuous
 62
     7
370
    25
100
AcDbPolyline
 90
       36
 70
   128
 43
0.0
 10
303.6653970919
 20
8.7043667378
 10
303.7222145762
 20
9.4661617326
 10
303.8908408687
 20
10.2690720806
 10
304.1658561815
 20
11.0872915826
 10
304.5384212961
 20
11.8945219906
 10
304.9965616633
 20
12.664818255
 10
305.5255522747
 20
13.3734224201
 10
306.1083909367
 20
13.997559365
 10
306.7263447352
 20
14.5171688147
 10
307.3595521267
 20
14.9155500941
 10
307.9876613046
 20
15.1798989009
 10
308.5904843231
 20
15.3017188471
 10
309.1486459544
 20
15.2770945393
 10
309.6442064244
 20
15.1068174231
 10
310.0612380119
 20
14.796360345
 10
310.3863369784
 20
14.355701651
 10
310.6090543758
 20
13.7990044742
 10
310.7222318836
 20
13.1441615197
 10
310.7222318836
 20
12.412219979
 10
310.6090543758
 20
11.6267050554
 10
310.3863369784
 20
10.812863845
 10
310.0612380119
 20
9.9968538738
 10
309.6442064244
 20
9.2049023737
 10
309.1486459544
 20
8.4624633176
 10
308.5904843231
 20
7.7933993076
 10
307.9876613046
 20
7.2192146115
 10
307.3595521267
 20
6.7583639979
 10
306.7263447352
 20
6.4256595846
 10
306.1083909367
 20
6.2317947653
 10
305.5255522747
 20
6.1830005148
 10
304.9965616633
 20
6.2808451204
 10
304.5384212961
 20
6.5221837761
 10
304.1658561815
 20
6.8992596587
 10
303.8908408687
 20
7.3999532393
 10
303.7222145762
 20
8.0081718142
 10
303.6653970919
 20
8.7043667378
  0
LWPOLYLINE
  5
129
330
1F
100
AcDbEntity
  8
0
  6
Continuous
 62
     1
370
    25
100
AcDbPolyline
 90
       39
 70
   128
 43
0.0
 10
282.6811617381
 20
-70.0854462803
 10
284.4786121858
 20
-69.1110317743
 10
286.3785010438
 20
-68.2036943878
 10
288.373330319
 20
-67.3670149668
 10
290.4552273315
 20
-66.6042955028
 10
292.6159757849
 20
-65.918546101
 10
294.8470481923
 20
-65.3124731012
 10
297.1396395301
 20
-64.7884683964
 10
299.4847019877
 20
-64.3485999939
 10
301.8729806749
 20
-63.9946038534
 10
304.2950501469
 20
-63.7278770357
 10
306.741351602
 20
-63.54947219
 10
309.2022306059
 20
-63.4600933984
 10
311.6679751935
 20
-63.4600933984
 10
314.1288541975
 20
-63.54947219
 10
316.5751556525
 20
-63.7278770357
 10
318.9972251245
 20
-63.9946038534
 10
321.3855038118
 20
-64.3485999939
 10
323.7305662693
 20
-64.7884683964
 10
326.0231576071
 20
-65.3124731012
 10
328.2542300145
 20
-65.918546101
 10
330.4149784679
 20
-66.6042955028
 10
332.4968754804
 20
-67.3670149668
 10
334.4917047556
 20
-68.2036943878
 10
336.3915936137
 20
-69.1110317743
 10
338.1890440613
 20
-70.0854462803
 10
339.8769623827
 20
-71.1230923367
 10
341.4486871355
 20
-72.2198748288
 10
342.89801544
 20
-73.3714652571
 10
344.2192274596
 20
-74.5733188203
 10
345.4071089741
 20
-75.8206923513
 10
346.4569719578
 20
-77.1086630369
 10
347.3646730812
 20
-78.432147845
 10
348.1266300625
 20
-79.7859235858
 10
348.7398358058
 20
-81.164647525
 10
349.2018702681
 20
-82.562878469
 10
349.5109100104
 20
-83.9750982391
 10
349.6657353941
 20
-85.395733449
 10
349.6851028997
 20
-86.1074554748
  0
LWPOLYLINE
  5
12A
330
1F
100
AcDbEntity
  8
0
  6
Continuous
 62
     1
370
    25
100
AcDbPolyline
 90
       14
 70
   128
 43
0.0
 10
271.1851028997
 20
-86.1074554748
 10
271.2044704054
 20
-85.395733449
 10
271.359295789
 20
-83.9750982391
 10
271.6683355314
 20
-82.562878469
 10
272.1303699936
 20
-81.164647525
 10
272.7435757369
 20
-79.7859235858
 10
273.5055327183
 20
-78.432147845
 10
274.4132338416
 20
-77.1086630369
 10
275.4630968253
 20
-75.8206923513
 10
276.6509783398
 20
-74.5733188203
 10
277.9721903594
 20
-73.3714652571
 10
279.421518664
 20
-72.2198748288
 10
280.9932434167
 20
-71.1230923367
 10
282.6811617381
 20
-70.0854462803
  0
LWPOLYLINE
  5
12B
330
1F
100
AcDbEntity
  8
0
  6
Continuous
 62
     1
370
    25
100
AcDbPolyline
 90
       42
 70
   128
 43
0.0
 10
291.1725397668
 20
-41.5108347324
 10
292.4595697756
 20
-42.254052596
 10
293.8510525912
 20
-43.0575688687
 10
295.3414966666
 20
-43.9182124389
 10
296.9250198999
 20
-44.8325867397
 10
298.5953728484
 20
-45.7970831534
 10
300.345963392
 20
-46.8078952533
 10
302.1698827498
 20
-47.8610338259
 10
304.0599327452
 20
-48.9523426143
 10
306.0086542144
 20
-50.0775147213
 10
308.008356444
 20
-51.2321096067
 10
310.051147523
 20
-52.4115706119
 10
312.1289654881
 20
-53.6112429432
 10
314.2336101412
 20
-54.826392042
 10
316.3567754114
 20
-56.0522222699
 10
318.4900821352
 20
-57.283895835
 10
320.6251111257
 20
-58.5165518846
 10
322.7534363988
 20
-59.7453256882
 10
324.8666584271
 20
-60.9653678371
 10
326.9564372886
 20
-62.1718633824
 10
329.0145255808
 20
-63.3600508372
 10
331.0328009697
 20
-64.5252409685
 10
333.0032982441
 20
-65.6628353032
 10
334.9182407517
 20
-66.7683442762
 10
336.7700710892
 20
-67.8374049486
 10
338.5514809284
 20
-68.8657982264
 10
340.2554398583
 20
-69.8494655111
 10
341.8752231316
 20
-70.7845247173
 10
343.4044382037
 20
-71.6672855936
 10
344.8370499614
 20
-72.494264286
 10
346.1674045405
 20
-73.2621970874
 10
347.3902516393
 20
-73.9680533181
 10
348.5007652389
 20
-74.6090472857
 10
349.4945626496
 20
-75.1826492801
 10
350.367721807
 20
-75.6865955562
 10
351.1167967507
 20
-76.1188972683
 10
351.7388312243
 20
-76.477848319
 10
352.2313703418
 20
-76.7620320925
 10
352.5924702763
 20
-76.9703270453
 10
352.8207059314
 20
-77.1019111324
 10
352.9151765652
 20
-77.1562650515
 10
352.917978002
 20
-77.1578439702
  0
LWPOLYLINE
  5
12C
330
1F
100
AcDbEntity
  8
0
  6
Continuous
 62
     1
370
    25
100
AcDbPolyline
 90
       11
 70
   128
 43
0.0
 10
284.9349838548
 20
-37.9078438838
 10
284.9774525114
 20
-37.9325135615
 10
285.1511010367
 20
-38.0329578699
 10
285.4580455559
 20
-38.21035932
 10
285.8970746992
 20
-38.4640177891
 10
286.4664558192
 20
-38.7929322034
 10
287.1639418287
 20
-39.1958044877
 10
287.9867800691
 20
-39.6710446894
 10
288.9317231738
 20
-40.2167772523
 10
289.9950418841
 20
-40.8308484194
 10
291.1725397668
 20
-41.5108347324
  0
ENDSEC
  0
SECTION
  2
OBJECTS
  0
DICTIONARY
  5
C
330
0
100
AcDbDictionary
281
     1
  3
ACAD_GROUP
350
D
  3
ACAD_LAYOUT
350
1A
  3
ACAD_MLINESTYLE
350
17
  3
ACAD_PLOTSETTINGS
350
19
  3
ACAD_PLOTSTYLENAME
350
E
  3
ACAD_SCALELIST
350
47
  3
DWGPROPS
350
12D
  0
DICTIONARY
  5
D
102
{ACAD_REACTORS
330
C
102
}
330
C
100
AcDbDictionary
281
     1
  0
DICTIONARY
  5
1A
102
{ACAD_REACTORS
330
C
102
}
330
C
100
AcDbDictionary
281
     1
  3
Layout1
350
1E
  3
Layout2
350
26
  3
Model
350
22
  0
DICTIONARY
  5
17
102
{ACAD_REACTORS
330
C
102
}
330
C
100
AcDbDictionary
281
     1
  3
Standard
350
18
  0
DICTIONARY
  5
19
102
{ACAD_REACTORS
330
C
102
}
330
C
100
AcDbDictionary
281
     1
  0
ACDBDICTIONARYWDFLT
  5
E
102
{ACAD_REACTORS
330
C
102
}
330
C
100
AcDbDictionary
281
     1
  3
Normal
350
F
100
AcDbDictionaryWithDefault
340
F
  0
DICTIONARY
  5
47
102
{ACAD_REACTORS
330
C
102
}
330
C
100
AcDbDictionary
281
     1
  3
A0
350
48
  3
A1
350
49
  3
A2
350
4A
  3
A3
350
4B
  3
A4
350
4C
  3
A5
350
4D
  3
A6
350
4E
  3
A7
350
4F
  3
A8
350
50
  3
A9
350
51
  3
B0
350
52
  3
B1
350
53
  3
B2
350
54
  3
B3
350
55
  3
B4
350
56
  3
B5
350
57
  3
B6
350
58
  3
B7
350
59
  3
B8
350
5A
  3
B9
350
5B
  3
C0
350
5C
  3
C1
350
5D
  3
C2
350
5E
  3
C3
350
5F
  3
C4
350
60
  3
C5
350
61
  3
C6
350
62
  3
C7
350
63
  3
C8
350
64
  3
C9
350
65
  3
D0
350
66
  3
D1
350
67
  3
D2
350
68
  0
XRECORD
  5
12D
102
{ACAD_REACTORS
330
C
102
}
330
C
100
AcDbXrecord
280
     1
  1
DWGPROPS COOKIE
  2

  3

  4

  6

  7

  8
b.kav
  9

300
=
301
=
302
=
303
=
304
=
305
=
306
=
307
=
308
=
309
=
 40
0.0
 41
2459741.478174039
 42
2459741.478174306
  1

 90
        0
  0
LAYOUT
  5
1E
102
{ACAD_REACTORS
330
1A
102
}
330
1A
100
AcDbPlotSettings
  1

  2
none_device
  4

  6

 40
0.0
 41
0.0
 42
0.0
 43
0.0
 44
0.0
 45
0.0
 46
0.0
 47
0.0
 48
0.0
 49
0.0
140
0.0
141
0.0
142
1.0
143
1.0
 70
   688
 72
     1
 73
     0
 74
     5
  7

 75
    16
147
1.0
148
0.0
149
0.0
100
AcDbLayout
  1
Layout1
 70
     1
 71
     1
 10
0.0
 20
0.0
 11
420.0
 21
297.0
 12
0.0
 22
0.0
 32
0.0
 14
1.0000000000E+20
 24
1.0000000000E+20
 34
1.0000000000E+20
 15
-1.0000000000E+20
 25
-1.0000000000E+20
 35
-1.0000000000E+20
146
0.0
 13
0.0
 23
0.0
 33
0.0
 16
1.0
 26
0.0
 36
0.0
 17
0.0
 27
1.0
 37
0.0
 76
     0
330
1B
  0
LAYOUT
  5
26
102
{ACAD_REACTORS
330
1A
102
}
330
1A
100
AcDbPlotSettings
  1

  2
none_device
  4

  6

 40
0.0
 41
0.0
 42
0.0
 43
0.0
 44
0.0
 45
0.0
 46
0.0
 47
0.0
 48
0.0
 49
0.0
140
0.0
141
0.0
142
1.0
143
1.0
 70
   688
 72
     1
 73
     0
 74
     5
  7

 75
    16
147
1.0
148
0.0
149
0.0
100
AcDbLayout
  1
Layout2
 70
     1
 71
     2
 10
0.0
 20
0.0
 11
0.0
 21
0.0
 12
0.0
 22
0.0
 32
0.0
 14
0.0
 24
0.0
 34
0.0
 15
0.0
 25
0.0
 35
0.0
146
0.0
 13
0.0
 23
0.0
 33
0.0
 16
1.0
 26
0.0
 36
0.0
 17
0.0
 27
1.0
 37
0.0
 76
     0
330
23
  0
LAYOUT
  5
22
102
{ACAD_REACTORS
330
1A
102
}
330
1A
100
AcDbPlotSettings
  1

  2
none_device
  4
Letter_(8.50_x_11.00_Inches)
  6

 40
6.35
 41
6.35
 42
6.35000508
 43
6.35000508
 44
215.9
 45
279.4
 46
0.0
 47
0.0
 48
0.0
 49
0.0
140
0.0
141
0.0
142
1.0
143
1.0
 70
  1712
 72
     1
 73
     0
 74
     0
  7

 75
     0
147
1.0
148
0.0
149
0.0
100
AcDbLayout
  1
Model
 70
     1
 71
     0
 10
0.0
 20
0.0
 11
279.4
 21
215.9
 12
0.0
 22
0.0
 32
0.0
 14
0.0
 24
0.0
 34
0.0
 15
279.4
 25
215.9
 35
0.0
146
0.0
 13
0.0
 23
0.0
 33
0.0
 16
1.0
 26
0.0
 36
0.0
 17
0.0
 27
1.0
 37
0.0
 76
     0
330
1F
331
29
  0
MLINESTYLE
  5
18
102
{ACAD_REACTORS
330
17
102
}
330
17
100
AcDbMlineStyle
  2
Standard
 70
     0
  3

 62
   256
 51
90.0
 52
90.0
 71
     2
 49
0.5
 62
   256
  6
BYLAYER
 49
-0.5
 62
   256
  6
BYLAYER
  0
ACDBPLACEHOLDER
  5
F
102
{ACAD_REACTORS
330
E
102
}
330
E
  0
SCALE
  5
48
102
{ACAD_REACTORS
330
47
102
}
330
47
100
AcDbScale
 70
     0
300
1:1
140
1.0
141
1.0
290
     1
  0
SCALE
  5
49
102
{ACAD_REACTORS
330
47
102
}
330
47
100
AcDbScale
 70
     0
300
1:2
140
1.0
141
2.0
290
     0
  0
SCALE
  5
4A
102
{ACAD_REACTORS
330
47
102
}
330
47
100
AcDbScale
 70
     0
300
1:4
140
1.0
141
4.0
290
     0
  0
SCALE
  5
4B
102
{ACAD_REACTORS
330
47
102
}
330
47
100
AcDbScale
 70
     0
300
1:5
140
1.0
141
5.0
290
     0
  0
SCALE
  5
4C
102
{ACAD_REACTORS
330
47
102
}
330
47
100
AcDbScale
 70
     0
300
1:8
140
1.0
141
8.0
290
     0
  0
SCALE
  5
4D
102
{ACAD_REACTORS
330
47
102
}
330
47
100
AcDbScale
 70
     0
300
1:10
140
1.0
141
10.0
290
     0
  0
SCALE
  5
4E
102
{ACAD_REACTORS
330
47
102
}
330
47
100
AcDbScale
 70
     0
300
1:16
140
1.0
141
16.0
290
     0
  0
SCALE
  5
4F
102
{ACAD_REACTORS
330
47
102
}
330
47
100
AcDbScale
 70
     0
300
1:20
140
1.0
141
20.0
290
     0
  0
SCALE
  5
50
102
{ACAD_REACTORS
330
47
102
}
330
47
100
AcDbScale
 70
     0
300
1:30
140
1.0
141
30.0
290
     0
  0
SCALE
  5
51
102
{ACAD_REACTORS
330
47
102
}
330
47
100
AcDbScale
 70
     0
300
1:40
140
1.0
141
40.0
290
     0
  0
SCALE
  5
52
102
{ACAD_REACTORS
330
47
102
}
330
47
100
AcDbScale
 70
     0
300
1:50
140
1.0
141
50.0
290
     0
  0
SCALE
  5
53
102
{ACAD_REACTORS
330
47
102
}
330
47
100
AcDbScale
 70
     0
300
1:100
140
1.0
141
100.0
290
     0
  0
SCALE
  5
54
102
{ACAD_REACTORS
330
47
102
}
330
47
100
AcDbScale
 70
     0
300
2:1
140
2.0
141
1.0
290
     0
  0
SCALE
  5
55
102
{ACAD_REACTORS
330
47
102
}
330
47
100
AcDbScale
 70
     0
300
4:1
140
4.0
141
1.0
290
     0
  0
SCALE
  5
56
102
{ACAD_REACTORS
330
47
102
}
330
47
100
AcDbScale
 70
     0
300
8:1
140
8.0
141
1.0
290
     0
  0
SCALE
  5
57
102
{ACAD_REACTORS
330
47
102
}
330
47
100
AcDbScale
 70
     0
300
10:1
140
10.0
141
1.0
290
     0
  0
SCALE
  5
58
102
{ACAD_REACTORS
330
47
102
}
330
47
100
AcDbScale
 70
     0
300
100:1
140
100.0
141
1.0
290
     0
  0
SCALE
  5
59
102
{ACAD_REACTORS
330
47
102
}
330
47
100
AcDbScale
 70
     0
300
1/128" = 1'-0"
140
0.0078125
141
12.0
290
     0
  0
SCALE
  5
5A
102
{ACAD_REACTORS
330
47
102
}
330
47
100
AcDbScale
 70
     0
300
1/64" = 1'-0"
140
0.015625
141
12.0
290
     0
  0
SCALE
  5
5B
102
{ACAD_REACTORS
330
47
102
}
330
47
100
AcDbScale
 70
     0
300
1/32" = 1'-0"
140
0.03125
141
12.0
290
     0
  0
SCALE
  5
5C
102
{ACAD_REACTORS
330
47
102
}
330
47
100
AcDbScale
 70
     0
300
1/16" = 1'-0"
140
0.0625
141
12.0
290
     0
  0
SCALE
  5
5D
102
{ACAD_REACTORS
330
47
102
}
330
47
100
AcDbScale
 70
     0
300
3/32" = 1'-0"
140
0.09375
141
12.0
290
     0
  0
SCALE
  5
5E
102
{ACAD_REACTORS
330
47
102
}
330
47
100
AcDbScale
 70
     0
300
1/8" = 1'-0"
140
0.125
141
12.0
290
     0
  0
SCALE
  5
5F
102
{ACAD_REACTORS
330
47
102
}
330
47
100
AcDbScale
 70
     0
300
3/16" = 1'-0"
140
0.1875
141
12.0
290
     0
  0
SCALE
  5
60
102
{ACAD_REACTORS
330
47
102
}
330
47
100
AcDbScale
 70
     0
300
1/4" = 1'-0"
140
0.25
141
12.0
290
     0
  0
SCALE
  5
61
102
{ACAD_REACTORS
330
47
102
}
330
47
100
AcDbScale
 70
     0
300
3/8" = 1'-0"
140
0.375
141
12.0
290
     0
  0
SCALE
  5
62
102
{ACAD_REACTORS
330
47
102
}
330
47
100
AcDbScale
 70
     0
300
1/2" = 1'-0"
140
0.5
141
12.0
290
     0
  0
SCALE
  5
63
102
{ACAD_REACTORS
330
47
102
}
330
47
100
AcDbScale
 70
     0
300
3/4" = 1'-0"
140
0.75
141
12.0
290
     0
  0
SCALE
  5
64
102
{ACAD_REACTORS
330
47
102
}
330
47
100
AcDbScale
 70
     0
300
1" = 1'-0"
140
1.0
141
12.0
290
     0
  0
SCALE
  5
65
102
{ACAD_REACTORS
330
47
102
}
330
47
100
AcDbScale
 70
     0
300
1-1/2" = 1'-0"
140
1.5
141
12.0
290
     0
  0
SCALE
  5
66
102
{ACAD_REACTORS
330
47
102
}
330
47
100
AcDbScale
 70
     0
300
3" = 1'-0"
140
3.0
141
12.0
290
     0
  0
SCALE
  5
67
102
{ACAD_REACTORS
330
47
102
}
330
47
100
AcDbScale
 70
     0
300
6" = 1'-0"
140
6.0
141
12.0
290
     0
  0
SCALE
  5
68
102
{ACAD_REACTORS
330
47
102
}
330
47
100
AcDbScale
 70
     0
300
1'-0" = 1'-0"
140
12.0
141
12.0
290
     0
  0
ENDSEC
  0
EOF
